  0
SECTION
  2
HEADER
  9
$ACADVER
  1
AC1012
  9
$DWGCODEPAGE
  3
ansi_932
  9
$INSBASE
 10
0.0
 20
0.0
 30
0.0
  9
$EXTMIN
 10
4915.559730159336
 20
-364.3278653841723
 30
0.0
  9
$EXTMAX
 10
5217.488766083454
 20
-124.3278653841723
 30
0.0
  9
$LIMMIN
 10
0.0
 20
0.0
  9
$LIMMAX
 10
420.0
 20
297.0
  9
$ORTHOMODE
 70
     0
  9
$REGENMODE
 70
     1
  9
$FILLMODE
 70
     1
  9
$QTEXTMODE
 70
     0
  9
$MIRRTEXT
 70
     0
  9
$DRAGMODE
 70
     2
  9
$LTSCALE
 40
0.5
  9
$OSMODE
 70
 14463
  9
$ATTMODE
 70
     1
  9
$TEXTSIZE
 40
4.0
  9
$TRACEWID
 40
1.0
  9
$TEXTSTYLE
  7
STANDARD
  9
$CLAYER
  8
1TEXT
  9
$CELTYPE
  6
BYLAYER
  9
$CECOLOR
 62
   256
  9
$CELTSCALE
 40
1.0
  9
$DELOBJ
 70
     1
  9
$DISPSILH
 70
     0
  9
$DIMSCALE
 40
1.0
  9
$DIMASZ
 40
2.0
  9
$DIMEXO
 40
0.0
  9
$DIMDLI
 40
7.0
  9
$DIMRND
 40
0.0
  9
$DIMDLE
 40
0.0
  9
$DIMEXE
 40
1.0
  9
$DIMTP
 40
0.0
  9
$DIMTM
 40
0.0
  9
$DIMTXT
 40
3.5
  9
$DIMCEN
 40
0.0
  9
$DIMTSZ
 40
0.0
  9
$DIMTOL
 70
     0
  9
$DIMLIM
 70
     0
  9
$DIMTIH
 70
     0
  9
$DIMTOH
 70
     0
  9
$DIMSE1
 70
     0
  9
$DIMSE2
 70
     0
  9
$DIMTAD
 70
     1
  9
$DIMZIN
 70
     8
  9
$DIMBLK
  1

  9
$DIMASO
 70
     1
  9
$DIMSHO
 70
     1
  9
$DIMPOST
  1
 
  9
$DIMAPOST
  1

  9
$DIMALT
 70
     0
  9
$DIMALTD
 70
     2
  9
$DIMALTF
 40
25.4
  9
$DIMLFAC
 40
1.0
  9
$DIMTOFL
 70
     1
  9
$DIMTVP
 40
0.0
  9
$DIMTIX
 70
     0
  9
$DIMSOXD
 70
     0
  9
$DIMSAH
 70
     1
  9
$DIMBLK1
  1
OPEN30
  9
$DIMBLK2
  1
OPEN30
  9
$DIMSTYLE
  2
NEWX10
  9
$DIMCLRD
 70
   256
  9
$DIMCLRE
 70
   256
  9
$DIMCLRT
 70
   201
  9
$DIMTFAC
 40
0.7
  9
$DIMGAP
 40
0.7
  9
$DIMJUST
 70
     0
  9
$DIMSD1
 70
     0
  9
$DIMSD2
 70
     0
  9
$DIMTOLJ
 70
     1
  9
$DIMTZIN
 70
     8
  9
$DIMALTZ
 70
     0
  9
$DIMALTTZ
 70
     0
  9
$DIMFIT
 70
     2
  9
$DIMUPT
 70
     0
  9
$DIMUNIT
 70
     2
  9
$DIMDEC
 70
     2
  9
$DIMTDEC
 70
     4
  9
$DIMALTU
 70
     2
  9
$DIMALTTD
 70
     2
  9
$DIMTXSTY
  7
STANDARD
  9
$DIMAUNIT
 70
     0
  9
$LUNITS
 70
     2
  9
$LUPREC
 70
     4
  9
$SKETCHINC
 40
1.0
  9
$FILLETRAD
 40
0.0
  9
$AUNITS
 70
     0
  9
$AUPREC
 70
     2
  9
$MENU
  1
acad
  9
$ELEVATION
 40
0.0
  9
$PELEVATION
 40
0.0
  9
$THICKNESS
 40
0.0
  9
$LIMCHECK
 70
     0
  9
$CHAMFERA
 40
10.0
  9
$CHAMFERB
 40
10.0
  9
$CHAMFERC
 40
20.0
  9
$CHAMFERD
 40
0.0
  9
$SKPOLY
 70
     0
  9
$TDCREATE
 40
2451318.621352917
  9
$TDUPDATE
 40
2458159.601936794
  9
$TDINDWG
 40
1.480489294
  9
$TDUSRTIMER
 40
1.480489294
  9
$USRTIMER
 70
     1
  9
$ANGBASE
 50
0.0
  9
$ANGDIR
 70
     0
  9
$PDMODE
 70
     0
  9
$PDSIZE
 40
0.0
  9
$PLINEWID
 40
0.0
  9
$COORDS
 70
     2
  9
$SPLFRAME
 70
     0
  9
$SPLINETYPE
 70
     6
  9
$SPLINESEGS
 70
     8
  9
$ATTDIA
 70
     0
  9
$ATTREQ
 70
     1
  9
$HANDLING
 70
     1
  9
$HANDSEED
  5
B788
  9
$SURFTAB1
 70
     6
  9
$SURFTAB2
 70
     6
  9
$SURFTYPE
 70
     6
  9
$SURFU
 70
     6
  9
$SURFV
 70
     6
  9
$UCSNAME
  2

  9
$UCSORG
 10
0.0
 20
0.0
 30
0.0
  9
$UCSXDIR
 10
1.0
 20
0.0
 30
0.0
  9
$UCSYDIR
 10
0.0
 20
1.0
 30
0.0
  9
$PUCSNAME
  2

  9
$PUCSORG
 10
0.0
 20
0.0
 30
0.0
  9
$PUCSXDIR
 10
1.0
 20
0.0
 30
0.0
  9
$PUCSYDIR
 10
0.0
 20
1.0
 30
0.0
  9
$USERI1
 70
     0
  9
$USERI2
 70
     0
  9
$USERI3
 70
     0
  9
$USERI4
 70
     0
  9
$USERI5
 70
     0
  9
$USERR1
 40
0.0
  9
$USERR2
 40
0.0
  9
$USERR3
 40
0.0
  9
$USERR4
 40
0.0
  9
$USERR5
 40
0.0
  9
$WORLDVIEW
 70
     1
  9
$SHADEDGE
 70
     3
  9
$SHADEDIF
 70
    70
  9
$TILEMODE
 70
     1
  9
$MAXACTVP
 70
    48
  9
$PINSBASE
 10
0.0
 20
0.0
 30
0.0
  9
$PLIMCHECK
 70
     0
  9
$PEXTMIN
 10
1.000000000000000E+20
 20
1.000000000000000E+20
 30
1.000000000000000E+20
  9
$PEXTMAX
 10
-1.000000000000000E+20
 20
-1.000000000000000E+20
 30
-1.000000000000000E+20
  9
$PLIMMIN
 10
0.0
 20
0.0
  9
$PLIMMAX
 10
420.0
 20
297.0
  9
$UNITMODE
 70
     0
  9
$VISRETAIN
 70
     1
  9
$PLINEGEN
 70
     0
  9
$PSLTSCALE
 70
     1
  9
$TREEDEPTH
 70
  3020
  9
$PICKSTYLE
 70
     1
  9
$CMLSTYLE
  2
STANDARD
  9
$CMLJUST
 70
     0
  9
$CMLSCALE
 40
20.0
  9
$SAVEIMAGES
 70
     1
  0
ENDSEC
  0
SECTION
  2
CLASSES
  0
CLASS
  1
DICTIONARYVAR
  2
AcDbDictionaryVar
  3
ObjectDBX Classes
 90
        0
280
     0
281
     0
  0
CLASS
  1
IDBUFFER
  2
AcDbIdBuffer
  3
ObjectDBX Classes
 90
    32768
280
     0
281
     0
  0
CLASS
  1
LWPOLYLINE
  2
AcDbPolyline
  3
ObjectDBX Classes
 90
    32768
280
     0
281
     1
  0
CLASS
  1
ACDBDICTIONARYWDFLT
  2
AcDbDictionaryWithDefault
  3
ObjectDBX Classes
 90
    32768
280
     0
281
     0
  0
CLASS
  1
ACDBPLACEHOLDER
  2
AcDbPlaceHolder
  3
ObjectDBX Classes
 90
        0
280
     0
281
     0
  0
CLASS
  1
LAYOUT
  2
AcDbLayout
  3
ObjectDBX Classes
 90
        0
280
     0
281
     0
  0
CLASS
  1
TABLESTYLE
  2
AcDbTableStyle
  3
ObjectDBX Classes
 90
     4095
280
     0
281
     0
  0
CLASS
  1
SORTENTSTABLE
  2
AcDbSortentsTable
  3
ObjectDBX Classes
 90
    32768
280
     0
281
     0
  0
CLASS
  1
MATERIAL
  2
AcDbMaterial
  3
ObjectDBX Classes
 90
     1153
280
     0
281
     0
  0
CLASS
  1
VISUALSTYLE
  2
AcDbVisualStyle
  3
ObjectDBX Classes
 90
     4095
280
     0
281
     0
  0
CLASS
  1
SCALE
  2
AcDbScale
  3
ObjectDBX Classes
 90
     1153
280
     0
281
     0
  0
CLASS
  1
MLEADERSTYLE
  2
AcDbMLeaderStyle
  3
ACDB_MLEADERSTYLE_CLASS
 90
     4095
280
     0
281
     0
  0
CLASS
  1
CELLSTYLEMAP
  2
AcDbCellStyleMap
  3
ObjectDBX Classes
 90
     1152
280
     0
281
     0
  0
CLASS
  1
SUN
  2
AcDbSun
  3
SCENEOE
 90
     1153
280
     0
281
     0
  0
CLASS
  1
XRECORD
  2
AcDbXrecord
  3
ObjectDBX Classes
 90
    32768
280
     0
281
     0
  0
CLASS
  1
HATCH
  2
AcDbHatch
  3
ObjectDBX Classes
 90
    32768
280
     0
281
     1
  0
ENDSEC
  0
SECTION
  2
TABLES
  0
TABLE
  2
VPORT
  5
8
330
0
100
AcDbSymbolTable
 70
     1
  0
VPORT
  5
952D
330
8
100
AcDbSymbolTableRecord
100
AcDbViewportTableRecord
  2
*ACTIVE
 70
     0
 10
0.0
 20
0.0
 11
1.0
 21
1.0
 12
5066.524248121395
 22
-244.3278653841723
 13
0.0
 23
0.0
 14
10.0
 24
10.0
 15
10.0
 25
10.0
 16
0.0
 26
0.0
 36
1.0
 17
0.0
 27
0.0
 37
0.0
 40
257.6842105263158
 41
1.871481028151775
 42
50.0
 43
0.0
 44
0.0
 50
0.0
 51
0.0
 71
    16
 72
   100
 73
     1
 74
     1
 75
     0
 76
     0
 77
     0
 78
     0
  0
ENDTAB
  0
TABLE
  2
LTYPE
  5
5
330
0
100
AcDbSymbolTable
 70
     2
  0
LTYPE
  5
12
330
5
100
AcDbSymbolTableRecord
100
AcDbLinetypeTableRecord
  2
BYBLOCK
 70
     0
  3

 72
    65
 73
     0
 40
0.0
  0
LTYPE
  5
13
330
5
100
AcDbSymbolTableRecord
100
AcDbLinetypeTableRecord
  2
BYLAYER
 70
     0
  3

 72
    65
 73
     0
 40
0.0
  0
LTYPE
  5
14
330
5
100
AcDbSymbolTableRecord
100
AcDbLinetypeTableRecord
  2
CONTINUOUS
 70
     0
  3
Solid line
 72
    65
 73
     0
 40
0.0
  0
LTYPE
  5
9837
330
5
100
AcDbSymbolTableRecord
100
AcDbLinetypeTableRecord
  2
CENTER2
 70
     0
  3
Center (.5x) ___ _ ___ _ ___ _ ___ _ ___ _ ___
 72
    65
 73
     4
 40
28.575
 49
19.05
 74
     0
 49
-3.175
 74
     0
 49
3.175
 74
     0
 49
-3.175
 74
     0
  0
ENDTAB
  0
TABLE
  2
LAYER
  5
2
102
{ACAD_XDICTIONARY
360
96D9
102
}
330
0
100
AcDbSymbolTable
 70
     5
  0
LAYER
  5
E
102
{ACAD_XDICTIONARY
360
9593
102
}
330
2
100
AcDbSymbolTableRecord
100
AcDbLayerTableRecord
  2
0
 70
     0
 62
     7
  6
CONTINUOUS
  0
LAYER
  5
29
102
{ACAD_XDICTIONARY
360
9595
102
}
330
2
100
AcDbSymbolTableRecord
100
AcDbLayerTableRecord
  2
1CENTER
 70
     0
 62
     7
  6
CENTER2
  0
LAYER
  5
31
102
{ACAD_XDICTIONARY
360
9597
102
}
330
2
100
AcDbSymbolTableRecord
100
AcDbLayerTableRecord
  2
1TEXT
 70
     0
 62
     7
  6
CONTINUOUS
  0
LAYER
  5
243
102
{ACAD_XDICTIONARY
360
959D
102
}
330
2
100
AcDbSymbolTableRecord
100
AcDbLayerTableRecord
  2
01
 70
     0
 62
     1
  6
CONTINUOUS
  0
LAYER
  5
24E
102
{ACAD_XDICTIONARY
360
95A3
102
}
330
2
100
AcDbSymbolTableRecord
100
AcDbLayerTableRecord
  2
1DIM
 70
     0
 62
     7
  6
CONTINUOUS
  0
ENDTAB
  0
TABLE
  2
STYLE
  5
3
330
0
100
AcDbSymbolTable
 70
     1
  0
STYLE
  5
F
330
3
100
AcDbSymbolTableRecord
100
AcDbTextStyleTableRecord
  2
STANDARD
 70
     0
 40
0.0
 41
1.0
 50
0.0
 71
     0
 42
4.0
  3
txt.shx
  4
extfont.shx
  0
ENDTAB
  0
TABLE
  2
VIEW
  5
6
330
0
100
AcDbSymbolTable
 70
     0
  0
ENDTAB
  0
TABLE
  2
UCS
  5
7
330
0
100
AcDbSymbolTable
 70
     0
  0
ENDTAB
  0
TABLE
  2
APPID
  5
9
330
0
100
AcDbSymbolTable
 70
    12
  0
APPID
  5
10
330
9
100
AcDbSymbolTableRecord
100
AcDbRegAppTableRecord
  2
ACAD
 70
     0
  0
APPID
  5
21
330
9
100
AcDbSymbolTableRecord
100
AcDbRegAppTableRecord
  2
DRAWINGVARIABLESXDATA
 70
     0
  0
APPID
  5
64
330
9
100
AcDbSymbolTableRecord
100
AcDbRegAppTableRecord
  2
CONTENTTABDATA
 70
     0
  0
APPID
  5
65
330
9
100
AcDbSymbolTableRecord
100
AcDbRegAppTableRecord
  2
CONTENTCURRENTTAB
 70
     0
  0
APPID
  5
66
330
9
100
AcDbSymbolTableRecord
100
AcDbRegAppTableRecord
  2
CONTENTBLOCKDESCRIPTION
 70
     0
  0
APPID
  5
67
330
9
100
AcDbSymbolTableRecord
100
AcDbRegAppTableRecord
  2
CONTENTBLOCKICON
 70
     0
  0
APPID
  5
68
330
9
100
AcDbSymbolTableRecord
100
AcDbRegAppTableRecord
  2
CONTENTLONGBLOCKNAME
 70
     0
  0
APPID
  5
2AE
330
9
100
AcDbSymbolTableRecord
100
AcDbRegAppTableRecord
  2
ACAD_PSEXT
 70
     0
  0
APPID
  5
9585
330
9
100
AcDbSymbolTableRecord
100
AcDbRegAppTableRecord
  2
ACAD_MLEADERVER
 70
     0
  0
APPID
  5
A2E3
330
9
100
AcDbSymbolTableRecord
100
AcDbRegAppTableRecord
  2
ACADANNOTATIVE
 70
     0
  0
APPID
  5
A2E4
330
9
100
AcDbSymbolTableRecord
100
AcDbRegAppTableRecord
  2
ACDBBLOCKREPETAG
 70
     0
  0
APPID
  5
AF56
330
9
100
AcDbSymbolTableRecord
100
AcDbRegAppTableRecord
  2
ACAECLAYERSTANDARD
 70
     0
  0
ENDTAB
  0
TABLE
  2
DIMSTYLE
  5
A
330
0
100
AcDbSymbolTable
 70
     1
  0
DIMSTYLE
105
48
330
A
100
AcDbSymbolTableRecord
100
AcDbDimStyleTableRecord
  2
NEWX10
 70
     0
  3
 
  4

  5

  6
OPEN30
  7
OPEN30
 40
1.0
 41
2.0
 42
0.0
 43
7.0
 44
1.0
 45
0.0
 46
0.0
 47
0.0
 48
0.0
140
3.5
141
0.0
142
0.0
143
25.4
144
1.0
145
0.0
146
0.7
147
0.7
 71
     0
 72
     0
 73
     0
 74
     0
 75
     0
 76
     0
 77
     1
 78
     8
170
     0
171
     2
172
     1
173
     1
174
     0
175
     0
176
   256
177
   256
178
   201
179
     2
270
     2
271
     2
272
     4
273
     2
274
     2
340
F
275
     0
280
     0
281
     0
282
     0
283
     1
284
     8
285
     0
286
     0
287
     2
288
     0
  0
ENDTAB
  0
TABLE
  2
BLOCK_RECORD
  5
1
330
0
100
AcDbSymbolTable
 70
     8
  0
BLOCK_RECORD
  5
18
102
{ACAD_XDICTIONARY
360
88F
102
}
330
1
100
AcDbSymbolTableRecord
100
AcDbBlockTableRecord
  2
*MODEL_SPACE
  0
BLOCK_RECORD
  5
15
330
1
100
AcDbSymbolTableRecord
100
AcDbBlockTableRecord
  2
*PAPER_SPACE
  0
BLOCK_RECORD
  5
42
330
1
100
AcDbSymbolTableRecord
100
AcDbBlockTableRecord
  2
_OPEN30
  0
BLOCK_RECORD
  5
A333
330
1
100
AcDbSymbolTableRecord
100
AcDbBlockTableRecord
  2
A3WAKUKAWAJUN2017_HYOUDAI_
  0
BLOCK_RECORD
  5
B5E8
330
1
100
AcDbSymbolTableRecord
100
AcDbBlockTableRecord
  2
*X74
  0
BLOCK_RECORD
  5
B636
330
1
100
AcDbSymbolTableRecord
100
AcDbBlockTableRecord
  2
*X75
  0
BLOCK_RECORD
  5
B688
330
1
100
AcDbSymbolTableRecord
100
AcDbBlockTableRecord
  2
*X76
  0
BLOCK_RECORD
  5
B6D9
330
1
100
AcDbSymbolTableRecord
100
AcDbBlockTableRecord
  2
*X77
  0
BLOCK_RECORD
  5
B716
330
1
100
AcDbSymbolTableRecord
100
AcDbBlockTableRecord
  2
*X78
  0
BLOCK_RECORD
  5
B756
330
1
100
AcDbSymbolTableRecord
100
AcDbBlockTableRecord
  2
*X79
  0
ENDTAB
  0
ENDSEC
  0
SECTION
  2
BLOCKS
  0
BLOCK
  5
19
330
18
100
AcDbEntity
  8
0
100
AcDbBlockBegin
  2
*MODEL_SPACE
 70
     0
 10
0.0
 20
0.0
 30
0.0
  3
*MODEL_SPACE
  1

  0
ENDBLK
  5
1A
330
18
100
AcDbEntity
  8
0
100
AcDbBlockEnd
  0
BLOCK
  5
16
330
15
100
AcDbEntity
 67
     1
  8
0
100
AcDbBlockBegin
  2
*PAPER_SPACE
 70
     0
 10
0.0
 20
0.0
 30
0.0
  3
*PAPER_SPACE
  1

  0
ENDBLK
  5
17
330
15
100
AcDbEntity
 67
     1
  8
0
100
AcDbBlockEnd
  0
BLOCK
  5
43
330
42
100
AcDbEntity
  8
0
100
AcDbBlockBegin
  2
_OPEN30
 70
     0
 10
0.0
 20
0.0
 30
0.0
  3
_OPEN30
  1

  0
LINE
  5
44
330
42
100
AcDbEntity
  8
0
  6
BYBLOCK
 62
     0
100
AcDbLine
 10
-1.0
 20
0.26794919
 30
0.0
 11
0.0
 21
0.0
 31
0.0
  0
LINE
  5
45
330
42
100
AcDbEntity
  8
0
  6
BYBLOCK
 62
     0
100
AcDbLine
 10
0.0
 20
0.0
 30
0.0
 11
-1.0
 21
-0.26794919
 31
0.0
  0
LINE
  5
46
330
42
100
AcDbEntity
  8
0
  6
BYBLOCK
 62
     0
100
AcDbLine
 10
0.0
 20
0.0
 30
0.0
 11
-1.0
 21
0.0
 31
0.0
  0
ENDBLK
  5
47
330
42
100
AcDbEntity
  8
0
100
AcDbBlockEnd
  0
BLOCK
  5
AA56
330
A333
100
AcDbEntity
  8
0
100
AcDbBlockBegin
  2
A3WAKUKAWAJUN2017_HYOUDAI_
 70
     0
 10
0.0
 20
0.0
 30
0.0
  3
A3WAKUKAWAJUN2017_HYOUDAI_
  1

  0
LINE
  5
A335
330
A333
100
AcDbEntity
  8
0
100
AcDbLine
 10
13.26299999998673
 20
-0.0001000000000317
 30
0.0
 11
9.236999999990758
 21
8.999899999990987
 31
0.0
1001
ACAD
1000
ASC_BOUNDS
1002
{
1070
    19
1005
A376
1002
}
  0
LINE
  5
A336
330
A333
100
AcDbEntity
  8
0
100
AcDbLine
 10
5.657999999994331
 20
0.9999999999989768
 30
0.0
 11
9.236999999990758
 21
8.999999999991019
 31
0.0
1001
ACAD
1000
ASC_BOUNDS
1002
{
1070
    19
1005
A376
1002
}
  0
LINE
  5
A337
330
A333
100
AcDbEntity
  8
0
100
AcDbLine
 10
18.59199999998134
 20
-0.2368999999997641
 30
0.0
 11
16.46099999998353
 21
5.432899999994561
 31
0.0
1001
ACAD
1000
ASC_BOUNDS
1002
{
1070
    19
1005
A377
1002
}
  0
LINE
  5
A338
330
A333
100
AcDbEntity
  8
0
100
AcDbLine
 10
18.59199999998134
 20
-0.2368999999997641
 30
0.0
 11
22.38199999997767
 21
8.763099999991255
 31
0.0
1001
ACAD
1000
ASC_BOUNDS
1002
{
1070
    19
1005
A377
1002
}
  0
LINE
  5
A339
330
A333
100
AcDbEntity
  8
0
100
AcDbLine
 10
14.32899999998563
 20
-0.2368999999997641
 30
0.0
 11
16.46099999998353
 21
5.432899999994561
 31
0.0
1001
ACAD
1000
ASC_BOUNDS
1002
{
1070
    19
1005
A377
1002
}
  0
LINE
  5
A33A
330
A333
100
AcDbEntity
  8
0
100
AcDbLine
 10
14.32899999998563
 20
-0.2368999999997641
 30
0.0
 11
10.53899999998941
 21
8.763099999991255
 31
0.0
1001
ACAD
1000
ASC_BOUNDS
1002
{
1070
    19
1005
A377
1002
}
  0
LINE
  5
A33B
330
A333
100
AcDbEntity
  8
0
100
AcDbLine
 10
19.53899999998043
 20
-0.0001000000000317
 30
0.0
 11
23.56599999997638
 21
8.999899999990987
 31
0.0
1001
ACAD
1000
ASC_BOUNDS
1002
{
1070
    19
1005
A378
1002
}
  0
LINE
  5
A33C
330
A333
100
AcDbEntity
  8
0
100
AcDbLine
 10
26.97358892824991
 20
1.383099999991202
 30
0.0
 11
23.56599999997638
 21
8.999899999990987
 31
0.0
1001
ACAD
1000
ASC_BOUNDS
1002
{
1070
    19
1005
A378
1002
}
  0
LINE
  5
A33D
330
A333
100
AcDbEntity
  8
0
100
AcDbLine
 10
5.657999999994331
 20
0.9999999999989768
 30
0.0
 11
3.181999999996833
 21
4.668599999995308
 31
0.0
1001
ACAD
1000
ASC_BOUNDS
1002
{
1070
    19
1005
A376
1002
}
  0
LINE
  5
A33E
330
A333
100
AcDbEntity
  8
0
100
AcDbLine
 10
4.617999999995391
 20
-0.0001000000000317
 30
0.0
 11
1.420999999998571
 21
4.736799999995242
 31
0.0
1001
ACAD
1000
ASC_BOUNDS
1002
{
1070
    19
1005
A376
1002
}
  0
LINE
  5
A33F
330
A333
100
AcDbEntity
  8
0
100
AcDbLine
 10
1.420999999998571
 20
8.763099999991255
 30
0.0
 11
1.420999999998571
 21
0.0
 31
0.0
1001
ACAD
1000
ASC_BOUNDS
1002
{
1070
    19
1005
A37B
1002
}
  0
LINE
  5
A340
330
A333
100
AcDbEntity
  8
0
100
AcDbLine
 10
0.0
 20
8.763099999991255
 30
0.0
 11
0.0
 21
0.0
 31
0.0
1001
ACAD
1000
ASC_BOUNDS
1002
{
1070
    19
1005
A37B
1002
}
  0
LINE
  5
A341
330
A333
100
AcDbEntity
  8
0
100
AcDbLine
 10
6.766999999993232
 20
-0.0001000000000317
 30
0.0
 11
7.826999999992154
 21
2.368399999997621
 31
0.0
1001
ACAD
1000
ASC_BOUNDS
1002
{
1070
    19
1005
A376
1002
}
  0
LINE
  5
A342
330
A333
100
AcDbEntity
  8
0
100
AcDbLine
 10
0.0
 20
0.0
 30
0.0
 11
1.420999999998571
 21
0.0
 31
0.0
1001
ACAD
1000
ASC_BOUNDS
1002
{
1070
    19
1005
A37B
1002
}
  0
LINE
  5
A343
330
A333
100
AcDbEntity
  8
0
100
AcDbLine
 10
4.617999999995391
 20
0.0
 30
0.0
 11
6.766999999993232
 21
0.0
 31
0.0
1001
ACAD
1000
ASC_BOUNDS
1002
{
1070
    19
1005
A376
1002
}
  0
LINE
  5
A344
330
A333
100
AcDbEntity
  8
0
100
AcDbLine
 10
11.70599999998831
 20
-0.0001000000000317
 30
0.0
 11
10.64699999998936
 21
2.368399999997621
 31
0.0
1001
ACAD
1000
ASC_BOUNDS
1002
{
1070
    19
1005
A376
1002
}
  0
LINE
  5
A345
330
A333
100
AcDbEntity
  8
0
100
AcDbLine
 10
7.826999999992154
 20
2.368399999997621
 30
0.0
 11
10.64699999998936
 21
2.368399999997621
 31
0.0
1001
ACAD
1000
ASC_BOUNDS
1002
{
1070
    19
1005
A376
1002
}
  0
LINE
  5
A346
330
A333
100
AcDbEntity
  8
0
100
AcDbLine
 10
11.70599999998831
 20
0.0
 30
0.0
 11
13.26299999998673
 21
0.0
 31
0.0
1001
ACAD
1000
ASC_BOUNDS
1002
{
1070
    19
1005
A376
1002
}
  0
LINE
  5
A347
330
A333
100
AcDbEntity
  8
0
100
AcDbLine
 10
22.15599999997789
 20
2.368399999997621
 30
0.0
 11
24.97599999997499
 21
2.368399999997621
 31
0.0
1001
ACAD
1000
ASC_BOUNDS
1002
{
1070
    19
1005
A378
1002
}
  0
LINE
  5
A348
330
A333
100
AcDbEntity
  8
0
100
AcDbLine
 10
19.53899999998043
 20
0.0
 30
0.0
 11
21.09599999997886
 21
0.0
 31
0.0
1001
ACAD
1000
ASC_BOUNDS
1002
{
1070
    19
1005
A378
1002
}
  0
LINE
  5
A349
330
A333
100
AcDbEntity
  8
0
100
AcDbLine
 10
21.09599999997886
 20
-0.0001000000000317
 30
0.0
 11
22.15599999997789
 21
2.368399999997621
 31
0.0
1001
ACAD
1000
ASC_BOUNDS
1002
{
1070
    19
1005
A378
1002
}
  0
LINE
  5
A34A
330
A333
100
AcDbEntity
  8
0
100
AcDbLine
 10
26.02015566812236
 20
0.0330999999912365
 30
0.0
 11
24.97599999997499
 21
2.368399999997621
 31
0.0
1001
ACAD
1000
ASC_BOUNDS
1002
{
1070
    19
1005
A378
1002
}
  0
LINE
  5
A34B
330
A333
100
AcDbEntity
  8
0
100
AcDbLine
 10
14.32399999998563
 20
3.315799999996671
 30
0.0
 11
16.46099999998353
 21
8.999899999990987
 31
0.0
1001
ACAD
1000
ASC_BOUNDS
1002
{
1070
    19
1005
A377
1002
}
  0
LINE
  5
A34C
330
A333
100
AcDbEntity
  8
0
100
AcDbLine
 10
6.432999999993513
 20
8.763099999991255
 30
0.0
 11
3.181999999996833
 21
4.668599999995308
 31
0.0
1001
ACAD
1000
ASC_BOUNDS
1002
{
1070
    19
1005
A376
1002
}
  0
LINE
  5
A34D
330
A333
100
AcDbEntity
  8
0
100
AcDbLine
 10
4.617999999995391
 20
8.763099999991255
 30
0.0
 11
1.420999999998571
 21
4.736799999995242
 31
0.0
1001
ACAD
1000
ASC_BOUNDS
1002
{
1070
    19
1005
A376
1002
}
  0
LINE
  5
A34E
330
A333
100
AcDbEntity
  8
0
100
AcDbLine
 10
0.0
 20
8.763099999991255
 30
0.0
 11
1.420999999998571
 21
8.763099999991255
 31
0.0
1001
ACAD
1000
ASC_BOUNDS
1002
{
1070
    19
1005
A37B
1002
}
  0
LINE
  5
A34F
330
A333
100
AcDbEntity
  8
0
100
AcDbLine
 10
4.617999999995391
 20
8.763099999991255
 30
0.0
 11
6.432999999993513
 21
8.763099999991255
 31
0.0
1001
ACAD
1000
ASC_BOUNDS
1002
{
1070
    19
1005
A376
1002
}
  0
LINE
  5
A350
330
A333
100
AcDbEntity
  8
0
100
AcDbLine
 10
14.32399999998563
 20
3.315799999996671
 30
0.0
 11
12.02999999998792
 21
8.763099999991255
 31
0.0
1001
ACAD
1000
ASC_BOUNDS
1002
{
1070
    19
1005
A377
1002
}
  0
LINE
  5
A351
330
A333
100
AcDbEntity
  8
0
100
AcDbLine
 10
10.06399999998996
 20
3.670999999996297
 30
0.0
 11
9.236999999990758
 21
5.5200999999945
 31
0.0
1001
ACAD
1000
ASC_BOUNDS
1002
{
1070
    19
1005
A376
1002
}
  0
LINE
  5
A352
330
A333
100
AcDbEntity
  8
0
100
AcDbLine
 10
8.409999999991555
 20
3.670999999996297
 30
0.0
 11
9.236999999990758
 21
5.5200999999945
 31
0.0
1001
ACAD
1000
ASC_BOUNDS
1002
{
1070
    19
1005
A376
1002
}
  0
LINE
  5
A353
330
A333
100
AcDbEntity
  8
0
100
AcDbLine
 10
8.409999999991555
 20
3.670999999996297
 30
0.0
 11
10.06399999998996
 21
3.670999999996297
 31
0.0
1001
ACAD
1000
ASC_BOUNDS
1002
{
1070
    19
1005
A376
1002
}
  0
LINE
  5
A354
330
A333
100
AcDbEntity
  8
0
100
AcDbLine
 10
10.53899999998941
 20
8.763099999991255
 30
0.0
 11
12.02999999998792
 21
8.763099999991255
 31
0.0
1001
ACAD
1000
ASC_BOUNDS
1002
{
1070
    19
1005
A377
1002
}
  0
LINE
  5
A355
330
A333
100
AcDbEntity
  8
0
100
AcDbLine
 10
22.7389999999773
 20
3.670999999996297
 30
0.0
 11
23.56599999997638
 21
5.5200999999945
 31
0.0
1001
ACAD
1000
ASC_BOUNDS
1002
{
1070
    19
1005
A378
1002
}
  0
LINE
  5
A356
330
A333
100
AcDbEntity
  8
0
100
AcDbLine
 10
22.7389999999773
 20
3.670999999996297
 30
0.0
 11
24.39299999997559
 21
3.670999999996297
 31
0.0
1001
ACAD
1000
ASC_BOUNDS
1002
{
1070
    19
1005
A378
1002
}
  0
LINE
  5
A357
330
A333
100
AcDbEntity
  8
0
100
AcDbLine
 10
18.59799999998143
 20
3.315799999996671
 30
0.0
 11
20.89099999997916
 21
8.763099999991255
 31
0.0
1001
ACAD
1000
ASC_BOUNDS
1002
{
1070
    19
1005
A377
1002
}
  0
LINE
  5
A358
330
A333
100
AcDbEntity
  8
0
100
AcDbLine
 10
18.59799999998143
 20
3.315799999996671
 30
0.0
 11
16.46099999998353
 21
8.999899999990987
 31
0.0
1001
ACAD
1000
ASC_BOUNDS
1002
{
1070
    19
1005
A377
1002
}
  0
LINE
  5
A359
330
A333
100
AcDbEntity
  8
0
100
AcDbLine
 10
20.89099999997916
 20
8.763099999991255
 30
0.0
 11
22.38199999997767
 21
8.763099999991255
 31
0.0
1001
ACAD
1000
ASC_BOUNDS
1002
{
1070
    19
1005
A377
1002
}
  0
LINE
  5
A35A
330
A333
100
AcDbEntity
  8
0
100
AcDbLine
 10
24.39299999997559
 20
3.670999999996297
 30
0.0
 11
23.56599999997638
 21
5.5200999999945
 31
0.0
1001
ACAD
1000
ASC_BOUNDS
1002
{
1070
    19
1005
A378
1002
}
  0
LINE
  5
A35B
330
A333
100
AcDbEntity
  8
0
100
AcDbLine
 10
44.99999999995498
 20
-0.2368999999997641
 30
0.0
 11
40.02599999995994
 21
5.341799999994635
 31
0.0
1001
ACAD
1000
ASC_BOUNDS
1002
{
1070
    19
1005
A37A
1002
}
  0
LINE
  5
A35C
330
A333
100
AcDbEntity
  8
0
100
AcDbLine
 10
40.02599999995994
 20
5.341799999994635
 30
0.0
 11
40.02599999995994
 21
0.0
 31
0.0
1001
ACAD
1000
ASC_BOUNDS
1002
{
1070
    19
1005
A37A
1002
}
  0
LINE
  5
A35D
330
A333
100
AcDbEntity
  8
0
100
AcDbLine
 10
38.60499999996136
 20
8.999999999991019
 30
0.0
 11
38.60499999996136
 21
0.0
 31
0.0
1001
ACAD
1000
ASC_BOUNDS
1002
{
1070
    19
1005
A37A
1002
}
  0
LINE
  5
A35E
330
A333
100
AcDbEntity
  8
0
100
AcDbLine
 10
44.99999999995498
 20
8.763099999991255
 30
0.0
 11
44.99999999995498
 21
-0.2368999999997641
 31
0.0
1001
ACAD
1000
ASC_BOUNDS
1002
{
1070
    19
1005
A37A
1002
}
  0
LINE
  5
A35F
330
A333
100
AcDbEntity
  8
0
100
AcDbLine
 10
38.60499999996136
 20
0.0
 30
0.0
 11
40.02599999995994
 21
0.0
 31
0.0
1001
ACAD
1000
ASC_BOUNDS
1002
{
1070
    19
1005
A37A
1002
}
  0
LINE
  5
A360
330
A333
100
AcDbEntity
  8
0
100
AcDbLine
 10
43.57899999995641
 20
3.421199999996588
 30
0.0
 11
38.60499999996136
 21
8.999899999990987
 31
0.0
1001
ACAD
1000
ASC_BOUNDS
1002
{
1070
    19
1005
A37A
1002
}
  0
LINE
  5
A361
330
A333
100
AcDbEntity
  8
0
100
AcDbLine
 10
43.57899999995641
 20
8.763099999991255
 30
0.0
 11
43.57899999995641
 21
3.421199999996588
 31
0.0
1001
ACAD
1000
ASC_BOUNDS
1002
{
1070
    19
1005
A37A
1002
}
  0
LINE
  5
A362
330
A333
100
AcDbEntity
  8
0
100
AcDbLine
 10
43.57899999995641
 20
8.763099999991255
 30
0.0
 11
44.99999999995498
 21
8.763099999991255
 31
0.0
1001
ACAD
1000
ASC_BOUNDS
1002
{
1070
    19
1005
A37A
1002
}
  0
LINE
  5
A363
330
A333
100
AcDbEntity
  8
0
100
AcDbLine
 10
37.67199999996831
 20
8.763099999991255
 30
0.0
 11
36.23199999996837
 21
8.763099999991255
 31
0.0
  0
LINE
  5
A364
330
A333
100
AcDbEntity
  8
0
100
AcDbLine
 10
31.64199999996833
 20
8.763099999991255
 30
0.0
 11
31.64199999996833
 21
2.481619422925121
 31
0.0
  0
LINE
  5
A365
330
A333
100
AcDbEntity
  8
0
100
AcDbLine
 10
37.67199999996831
 20
8.763099999991255
 30
0.0
 11
37.67199999996831
 21
2.481619422925121
 31
0.0
  0
LINE
  5
A366
330
A333
100
AcDbEntity
  8
0
100
AcDbLine
 10
36.23199999996837
 20
8.763099999991255
 30
0.0
 11
36.23199999996837
 21
2.481619422925064
 31
0.0
  0
LINE
  5
A367
330
A333
100
AcDbEntity
  8
0
100
AcDbLine
 10
33.08199999996839
 20
8.763099999991255
 30
0.0
 11
33.08199999996839
 21
2.481619422925121
 31
0.0
  0
ARC
  5
A368
330
A333
100
AcDbEntity
  8
0
100
AcDbCircle
 10
34.65699999996832
 20
3.183099999991214
 30
0.0
 40
3.420000000000007
100
AcDbArc
 50
240.0000000000255
 51
299.9999999999766
  0
ARC
  5
A369
330
A333
100
AcDbEntity
  8
0
100
AcDbCircle
 10
34.65699999996832
 20
3.183099999991214
 30
0.0
 40
1.97999999999999
100
AcDbArc
 50
240.000000000026
 51
299.9999999999703
  0
LINE
  5
A36A
330
A333
100
AcDbEntity
  8
0
100
AcDbLine
 10
33.08199999996828
 20
8.763099999991255
 30
0.0
 11
31.64199999996833
 21
8.763099999991255
 31
0.0
  0
ARC
  5
A36B
330
A333
100
AcDbEntity
  8
0
100
AcDbCircle
 10
35.06199999996829
 20
2.481619422925064
 30
0.0
 40
1.17
100
AcDbArc
 50
299.9999999999699
 51
0.0
  0
ARC
  5
A36C
330
A333
100
AcDbEntity
  8
0
100
AcDbCircle
 10
34.25199999996835
 20
2.481619422925121
 30
0.0
 40
1.17
100
AcDbArc
 50
180.0
 51
240.0000000000238
  0
ARC
  5
A36D
330
A333
100
AcDbEntity
  8
0
100
AcDbCircle
 10
35.06199999996841
 20
2.481619422925121
 30
0.0
 40
2.61
100
AcDbArc
 50
299.9999999999756
 51
0.0
  0
ARC
  5
A36E
330
A333
100
AcDbEntity
  8
0
100
AcDbCircle
 10
34.25199999996835
 20
2.481619422925121
 30
0.0
 40
2.61
100
AcDbArc
 50
180.0
 51
240.0000000000244
  0
LINE
  5
A36F
330
A333
100
AcDbEntity
  8
0
100
AcDbLine
 10
29.30199999996933
 20
8.763099999991255
 30
0.0
 11
30.74199999996927
 21
8.763099999991255
 31
0.0
1001
ACAD
1000
ASC_BOUNDS
1002
{
1070
    19
1005
A378
1002
}
  0
LINE
  5
A370
330
A333
100
AcDbEntity
  8
0
100
AcDbLine
 10
30.74199999996927
 20
8.763099999991255
 30
0.0
 11
30.74199999996927
 21
2.373099999991211
 31
0.0
1001
ACAD
1000
ASC_BOUNDS
1002
{
1070
    19
1005
A378
1002
}
  0
LINE
  5
A371
330
A333
100
AcDbEntity
  8
0
100
AcDbLine
 10
26.02015566812236
 20
0.0330999999912365
 30
0.0
 11
28.40199999996923
 21
0.0330999999912365
 31
0.0
1001
ACAD
1000
ASC_BOUNDS
1002
{
1070
    19
1005
A378
1002
}
  0
LINE
  5
A372
330
A333
100
AcDbEntity
  8
0
100
AcDbLine
 10
29.30199999996933
 20
8.763099999991255
 30
0.0
 11
29.30199999996933
 21
2.283099999991236
 31
0.0
1001
ACAD
1000
ASC_BOUNDS
1002
{
1070
    19
1005
A378
1002
}
  0
LINE
  5
A373
330
A333
100
AcDbEntity
  8
0
100
AcDbLine
 10
26.97358892824991
 20
1.383099999991202
 30
0.0
 11
28.40199999996923
 21
1.383099999991202
 31
0.0
1001
ACAD
1000
ASC_BOUNDS
1002
{
1070
    19
1005
A378
1002
}
  0
ARC
  5
A374
330
A333
100
AcDbEntity
  8
0
100
AcDbCircle
 10
28.40199999996923
 20
2.283099999991236
 30
0.0
 40
0.9
100
AcDbArc
 50
270.0
 51
0.0
1001
ACAD
1000
ASC_BOUNDS
1002
{
1070
    19
1005
A378
1002
}
  0
ARC
  5
A375
330
A333
100
AcDbEntity
  8
0
100
AcDbCircle
 10
28.40199999996923
 20
2.373099999991211
 30
0.0
 40
2.34
100
AcDbArc
 50
270.0
 51
0.0
1001
ACAD
1000
ASC_BOUNDS
1002
{
1070
    19
1005
A378
1002
}
  0
INSERT
  5
A376
330
A333
100
AcDbEntity
  8
0
100
AcDbBlockReference
  2
*X74
 10
0.0
 20
0.0
 30
0.0
1001
ACAD
1000
HATCH
1002
{
1070
    19
1000
ANSI37
1040
0.15
1040
0.0
1000
ASC_BOUNDS
1070
     2
1070
     2
1070
    12
1005
A335
1005
A336
1005
A33D
1005
A34C
1005
A34F
1005
A34D
1005
A33E
1005
A343
1005
A341
1005
A345
1005
A344
1005
A346
1070
     2
1070
     3
1005
A351
1005
A353
1005
A352
1000
ASC_SEEDPOINT
1011
3.614004224891801
1021
2.996669441146025
1031
0.0
1000
R14_HATCH_DATA
1000
A376
1011
1.0
1021
0.0
1031
0.0
1011
0.0
1021
1.0
1031
0.0
1011
0.0
1021
0.0
1031
1.0
1040
0.0
1010
0.0
1020
0.0
1030
1.0
1000
ANSI37
1070
     0
1070
     1
1071
        2
1071
        7
1070
     0
1070
     1
1071
       17
1040
13.26299999998673
1040
-0.0001000000000317
1040
9.236999999990758
1040
8.999899999990987
1040
9.236999999990758
1040
8.999999999991019
1040
5.657999999994331
1040
0.9999999999989768
1040
3.181999999996833
1040
4.668599999995308
1040
6.432999999993513
1040
8.763099999991255
1040
4.617999999995391
1040
8.763099999991255
1040
1.420999999998571
1040
4.736799999995242
1040
4.617999999995391
1040
-0.0001000000000317
1040
4.617999999995391
1040
0.0
1040
6.766999999993232
1040
0.0
1040
6.766999999993232
1040
-0.0001000000000317
1040
7.826999999992154
1040
2.368399999997621
1040
10.64699999998936
1040
2.368399999997621
1040
11.70599999998831
1040
-0.0001000000000317
1040
11.70599999998831
1040
0.0
1040
13.26299999998673
1040
0.0
1071
       12
1005
A335
1005
A336
1005
A33D
1005
A34C
1005
A34F
1005
A34D
1005
A33E
1005
A343
1005
A341
1005
A345
1005
A344
1005
A346
1071
       22
1070
     0
1070
     1
1071
        3
1040
9.236999999990758
1040
5.5200999999945
1040
10.06399999998996
1040
3.670999999996297
1040
8.409999999991555
1040
3.670999999996297
1071
        3
1005
A351
1005
A353
1005
A352
1070
     0
1070
     1
1040
0.0
1040
0.15
1070
     0
1070
     2
1040
0.7853981633974483
1040
49.29960901727088
1040
-10.17736998311392
1040
-0.3367596045400932
1040
0.3367596045400932
1070
     0
1040
2.356194490192345
1040
49.29960901727088
1040
-10.17736998311392
1040
-0.3367596045400932
1040
-0.3367596045400932
1070
     0
1040
0.0110235143455945
1071
        2
1040
3.614004224891801
1040
2.996669441146025
1040
0.0
1040
3.614004224891801
1040
2.996669441146025
1040
0.0
1002
}
  0
INSERT
  5
A377
330
A333
100
AcDbEntity
  8
0
100
AcDbBlockReference
  2
*X75
 10
0.0
 20
0.0
 30
0.0
1001
ACAD
1000
HATCH
1002
{
1070
    19
1000
ANSI37
1040
0.15
1040
0.0
1000
ASC_BOUNDS
1070
     1
1070
     2
1070
    10
1005
A337
1005
A338
1005
A359
1005
A357
1005
A358
1005
A34B
1005
A350
1005
A354
1005
A33A
1005
A339
1000
ASC_SEEDPOINT
1011
14.73245321214324
1021
2.798246178283421
1031
0.0
1000
R14_HATCH_DATA
1000
A377
1011
1.0
1021
0.0
1031
0.0
1011
0.0
1021
1.0
1031
0.0
1011
0.0
1021
0.0
1031
1.0
1040
0.0
1010
0.0
1020
0.0
1030
1.0
1000
ANSI37
1070
     0
1070
     1
1071
        1
1071
        7
1070
     0
1070
     1
1071
       10
1040
16.46099999998353
1040
5.432899999994561
1040
18.59199999998134
1040
-0.2368999999997641
1040
22.38199999997767
1040
8.763099999991255
1040
20.89099999997916
1040
8.763099999991255
1040
18.59799999998143
1040
3.315799999996671
1040
16.46099999998353
1040
8.999899999990987
1040
14.32399999998563
1040
3.315799999996671
1040
12.02999999998792
1040
8.763099999991255
1040
10.53899999998941
1040
8.763099999991255
1040
14.32899999998563
1040
-0.2368999999997641
1071
       10
1005
A337
1005
A338
1005
A359
1005
A357
1005
A358
1005
A34B
1005
A350
1005
A354
1005
A33A
1005
A339
1070
     0
1070
     1
1040
0.0
1040
0.15
1070
     0
1070
     2
1040
0.7853981633974483
1040
49.29960901727088
1040
-10.17736998311392
1040
-0.3367596045400932
1040
0.3367596045400932
1070
     0
1040
2.356194490192345
1040
49.29960901727088
1040
-10.17736998311392
1040
-0.3367596045400932
1040
-0.3367596045400932
1070
     0
1040
0.0110235143455945
1071
        1
1040
14.73245321214324
1040
2.798246178283421
1040
0.0
1002
}
  0
INSERT
  5
A378
330
A333
100
AcDbEntity
  8
0
100
AcDbBlockReference
  2
*X76
 10
0.0
 20
0.0
 30
0.0
1001
ACAD
1000
HATCH
1002
{
1070
    19
1000
ANSI37
1040
0.15
1040
0.0
1000
ASC_BOUNDS
1070
     2
1070
     2
1070
    13
1005
A33B
1005
A348
1005
A349
1005
A347
1005
A34A
1005
A371
1005
A375
1005
A370
1005
A36F
1005
A372
1005
A374
1005
A373
1005
A33C
1070
     2
1070
     3
1005
A355
1005
A35A
1005
A356
1000
ASC_SEEDPOINT
1011
21.97929957367762
1021
3.294304244259308
1031
0.0
1000
R14_HATCH_DATA
1000
A378
1011
1.0
1021
0.0
1031
0.0
1011
0.0
1021
1.0
1031
0.0
1011
0.0
1021
0.0
1031
1.0
1040
0.0
1010
0.0
1020
0.0
1030
1.0
1000
ANSI37
1070
     0
1070
     1
1071
        2
1071
        7
1070
     1
1070
     1
1071
       15
1040
23.56599999997638
1040
8.999899999990987
1040
0.0
1040
19.53899999998043
1040
-0.0001000000000317
1040
0.0
1040
19.53899999998043
1040
0.0
1040
0.0
1040
21.09599999997886
1040
0.0
1040
0.0
1040
21.09599999997886
1040
-0.0001000000000317
1040
0.0
1040
22.15599999997789
1040
2.368399999997621
1040
0.0
1040
24.97599999997499
1040
2.368399999997621
1040
0.0
1040
26.02015566812236
1040
0.0330999999912365
1040
0.0
1040
28.40199999996923
1040
0.0330999999912365
1040
0.414213562373095
1040
30.74199999996923
1040
2.373099999991211
1040
0.0
1040
30.74199999996927
1040
8.763099999991255
1040
0.0
1040
29.30199999996933
1040
8.763099999991255
1040
0.0
1040
29.30199999996933
1040
2.283099999991236
1040
-0.414213562373095
1040
28.40199999996923
1040
1.383099999991237
1040
0.0
1040
26.97358892824991
1040
1.383099999991202
1040
0.0
1071
       13
1005
A33B
1005
A348
1005
A349
1005
A347
1005
A34A
1005
A371
1005
A375
1005
A370
1005
A36F
1005
A372
1005
A374
1005
A373
1005
A33C
1071
       22
1070
     0
1070
     1
1071
        3
1040
22.7389999999773
1040
3.670999999996297
1040
23.56599999997638
1040
5.5200999999945
1040
24.39299999997559
1040
3.670999999996297
1071
        3
1005
A355
1005
A35A
1005
A356
1070
     0
1070
     1
1040
0.0
1040
0.15
1070
     0
1070
     2
1040
0.7853981633974483
1040
49.29960901727088
1040
-10.17736998311392
1040
-0.3367596045400932
1040
0.3367596045400932
1070
     0
1040
2.356194490192345
1040
49.29960901727088
1040
-10.17736998311392
1040
-0.3367596045400932
1040
-0.3367596045400932
1070
     0
1040
0.0110235143455945
1071
        2
1040
21.97929957367762
1040
3.294304244259308
1040
0.0
1040
21.97929957367762
1040
3.294304244259308
1040
0.0
1002
}
  0
INSERT
  5
A379
330
A333
100
AcDbEntity
  8
0
100
AcDbBlockReference
  2
*X77
 10
0.0
 20
0.0
 30
0.0
1001
ACAD
1000
HATCH
1002
{
1070
    19
1000
ANSI37
1040
0.15
1040
0.0
1000
R14_HATCH_DATA
1000
A379
1011
1.0
1021
0.0
1031
0.0
1011
0.0
1021
1.0
1031
0.0
1011
0.0
1021
0.0
1031
1.0
1040
0.0
1010
0.0
1020
0.0
1030
1.0
1000
ANSI37
1070
     0
1070
     1
1071
        1
1071
        7
1070
     1
1070
     1
1071
       12
1040
31.64199999996833
1040
2.481619422925121
1040
0.2679491924310942
1040
32.94699999997067
1040
0.2212931190493919
1040
0.2679491924301353
1040
36.36699999995983
1040
0.2212931190459813
1040
0.2679491924321411
1040
37.67199999996831
1040
2.481619422928361
1040
0.0
1040
37.67199999996831
1040
8.763099999991255
1040
0.0
1040
36.23199999996837
1040
8.763099999991255
1040
0.0
1040
36.23199999996837
1040
2.481619422925064
1040
-0.2679491924310291
1040
35.64699999996708
1040
1.468369700498386
1040
-0.267949192430519
1040
33.66699999997093
1040
1.468369700497703
1040
-0.267949192431809
1040
33.08199999996839
1040
2.481619422926997
1040
0.0
1040
33.08199999996839
1040
8.763099999991255
1040
0.0
1040
31.64199999996833
1040
8.763099999991255
1040
0.0
1071
        0
1070
     0
1070
     1
1040
0.0
1040
0.15
1070
     0
1070
     2
1040
0.7853981633974483
1040
49.29960901727088
1040
-10.17736998311392
1040
-0.3367596045400932
1040
0.3367596045400932
1070
     0
1040
2.356194490192345
1040
49.29960901727088
1040
-10.17736998311392
1040
-0.3367596045400932
1040
-0.3367596045400932
1070
     0
1040
0.0110235143455945
1071
        1
1040
32.30357378967278
1040
3.988785755459219
1040
0.0
1002
}
  0
INSERT
  5
A37A
330
A333
100
AcDbEntity
  8
0
100
AcDbBlockReference
  2
*X78
 10
0.0
 20
0.0
 30
0.0
1001
ACAD
1000
HATCH
1002
{
1070
    19
1000
ANSI37
1040
0.15
1040
0.0
1000
ASC_BOUNDS
1070
     1
1070
     2
1070
     8
1005
A35B
1005
A35E
1005
A362
1005
A361
1005
A360
1005
A35D
1005
A35F
1005
A35C
1000
ASC_SEEDPOINT
1011
39.74896370716704
1021
4.484843821435049
1031
0.0
1000
R14_HATCH_DATA
1000
A37A
1011
1.0
1021
0.0
1031
0.0
1011
0.0
1021
1.0
1031
0.0
1011
0.0
1021
0.0
1031
1.0
1040
0.0
1010
0.0
1020
0.0
1030
1.0
1000
ANSI37
1070
     0
1070
     1
1071
        1
1071
        7
1070
     0
1070
     1
1071
        9
1040
40.02599999995994
1040
5.341799999994635
1040
44.99999999995498
1040
-0.2368999999997641
1040
44.99999999995498
1040
8.763099999991255
1040
43.57899999995641
1040
8.763099999991255
1040
43.57899999995641
1040
3.421199999996588
1040
38.60499999996136
1040
8.999899999990987
1040
38.60499999996136
1040
8.999999999991019
1040
38.60499999996136
1040
0.0
1040
40.02599999995994
1040
0.0
1071
        8
1005
A35B
1005
A35E
1005
A362
1005
A361
1005
A360
1005
A35D
1005
A35F
1005
A35C
1070
     0
1070
     1
1040
0.0
1040
0.15
1070
     0
1070
     2
1040
0.7853981633974483
1040
49.29960901727088
1040
-10.17736998311392
1040
-0.3367596045400932
1040
0.3367596045400932
1070
     0
1040
2.356194490192345
1040
49.29960901727088
1040
-10.17736998311392
1040
-0.3367596045400932
1040
-0.3367596045400932
1070
     0
1040
0.0110235143455945
1071
        1
1040
39.74896370716704
1040
4.484843821435049
1040
0.0
1002
}
  0
INSERT
  5
A37B
330
A333
100
AcDbEntity
  8
0
100
AcDbBlockReference
  2
*X79
 10
0.0
 20
0.0
 30
0.0
1001
ACAD
1000
HATCH
1002
{
1070
    19
1000
ANSI37
1040
0.15
1040
0.0
1000
ASC_BOUNDS
1070
     1
1070
     2
1070
     4
1005
A33F
1005
A34E
1005
A340
1005
A342
1000
ASC_SEEDPOINT
1011
1.079051535452663
1021
4.148538732891836
1031
0.0
1000
R14_HATCH_DATA
1000
A37B
1011
1.0
1021
0.0
1031
0.0
1011
0.0
1021
1.0
1031
0.0
1011
0.0
1021
0.0
1031
1.0
1040
0.0
1010
0.0
1020
0.0
1030
1.0
1000
ANSI37
1070
     0
1070
     1
1071
        1
1071
        7
1070
     0
1070
     1
1071
        4
1040
1.420999999998571
1040
0.0
1040
1.420999999998571
1040
8.763099999991255
1040
0.0
1040
8.763099999991255
1040
0.0
1040
0.0
1071
        4
1005
A33F
1005
A34E
1005
A340
1005
A342
1070
     0
1070
     1
1040
0.0
1040
0.15
1070
     0
1070
     2
1040
0.7853981633974483
1040
49.29960901727088
1040
-10.17736998311392
1040
-0.3367596045400932
1040
0.3367596045400932
1070
     0
1040
2.356194490192345
1040
49.29960901727088
1040
-10.17736998311392
1040
-0.3367596045400932
1040
-0.3367596045400932
1070
     0
1040
0.0053004257112761
1071
        1
1040
1.079051535452663
1040
4.148538732891836
1040
0.0
1002
}
  0
ENDBLK
  5
AA57
330
A333
100
AcDbEntity
  8
0
100
AcDbBlockEnd
  0
BLOCK
  5
B776
330
B5E8
100
AcDbEntity
  8
0
100
AcDbBlockBegin
  2
*X74
 70
     1
 10
0.0
 20
0.0
 30
0.0
  3
*X74
  1

  0
LINE
  5
B5E9
330
B5E8
100
AcDbEntity
  8
0
  6
CONTINUOUS
100
AcDbLine
 10
3.418023043697893
 20
7.251849696850613
 30
0.0
 11
4.929273346838536
 21
8.763099999991255
 31
0.0
  0
LINE
  5
B5EA
330
B5E8
100
AcDbEntity
  8
0
  6
CONTINUOUS
100
AcDbLine
 10
1.483656411257782
 20
4.643963855330318
 30
0.0
 11
5.60279255591872
 21
8.763099999991255
 31
0.0
  0
LINE
  5
B5EB
330
B5E8
100
AcDbEntity
  8
0
  6
CONTINUOUS
100
AcDbLine
 10
1.755053947328235
 20
4.241842182320584
 30
0.0
 11
6.276311764998907
 21
8.763099999991255
 31
0.0
  0
LINE
  5
B5EC
330
B5E8
100
AcDbEntity
  8
0
  6
CONTINUOUS
100
AcDbLine
 10
2.026451483398688
 20
3.839720509310849
 30
0.0
 11
4.441040904851878
 21
6.254309930764039
 31
0.0
  0
LINE
  5
B5ED
330
B5E8
100
AcDbEntity
  8
0
  6
CONTINUOUS
100
AcDbLine
 10
2.297849019469139
 20
3.437598836301114
 30
0.0
 11
3.321765168359338
 21
4.461514985191313
 31
0.0
  0
LINE
  5
B5EE
330
B5E8
100
AcDbEntity
  8
0
  6
CONTINUOUS
100
AcDbLine
 10
2.569246555539591
 20
3.03547716329138
 30
0.0
 11
3.593163397972743
 21
4.059394005724531
 31
0.0
  0
LINE
  5
B5EF
330
B5E8
100
AcDbEntity
  8
0
  6
CONTINUOUS
100
AcDbLine
 10
2.840644091610043
 20
2.633355490281646
 30
0.0
 11
3.864561627586149
 21
3.657273026257751
 31
0.0
  0
LINE
  5
B5F0
330
B5E8
100
AcDbEntity
  8
0
  6
CONTINUOUS
100
AcDbLine
 10
3.112041627680496
 20
2.231233817271911
 30
0.0
 11
4.135959857199554
 21
3.25515204679097
 31
0.0
  0
LINE
  5
B5F1
330
B5E8
100
AcDbEntity
  8
0
  6
CONTINUOUS
100
AcDbLine
 10
3.383439163750948
 20
1.829112144262177
 30
0.0
 11
4.40735808681296
 21
2.853031067324189
 31
0.0
  0
LINE
  5
B5F2
330
B5E8
100
AcDbEntity
  8
0
  6
CONTINUOUS
100
AcDbLine
 10
3.654836699821399
 20
1.426990471252442
 30
0.0
 11
4.678756316426365
 21
2.450910087857407
 31
0.0
  0
LINE
  5
B5F3
330
B5E8
100
AcDbEntity
  8
0
  6
CONTINUOUS
100
AcDbLine
 10
3.926234235891853
 20
1.024868798242709
 30
0.0
 11
4.95015454603977
 21
2.048789108390626
 31
0.0
  0
LINE
  5
B5F4
330
B5E8
100
AcDbEntity
  8
0
  6
CONTINUOUS
100
AcDbLine
 10
4.197631771962304
 20
0.6227471252329737
 30
0.0
 11
5.221552775653176
 21
1.646668128923846
 31
0.0
  0
LINE
  5
B5F5
330
B5E8
100
AcDbEntity
  8
0
  6
CONTINUOUS
100
AcDbLine
 10
8.715877546767851
 20
7.835069736359266
 30
0.0
 11
9.435953450375058
 21
8.555145639966472
 31
0.0
  0
LINE
  5
B5F6
330
B5E8
100
AcDbEntity
  8
0
  6
CONTINUOUS
100
AcDbLine
 10
8.170620868422267
 20
6.616293848933497
 30
0.0
 11
9.644120833743461
 21
8.08979381425469
 31
0.0
  0
LINE
  5
B5F7
330
B5E8
100
AcDbEntity
  8
0
  6
CONTINUOUS
100
AcDbLine
 10
7.625364190076684
 20
5.397517961507727
 30
0.0
 11
9.852288217111864
 21
7.624441988542907
 31
0.0
  0
LINE
  5
B5F8
330
B5E8
100
AcDbEntity
  8
0
  6
CONTINUOUS
100
AcDbLine
 10
7.080107511731101
 20
4.178742074081957
 30
0.0
 11
10.06045560048027
 21
7.159090162831124
 31
0.0
  0
LINE
  5
B5F9
330
B5E8
100
AcDbEntity
  8
0
  6
CONTINUOUS
100
AcDbLine
 10
6.534850833385518
 20
2.959966186656187
 30
0.0
 11
10.26862298384867
 21
6.693738337119342
 31
0.0
  0
LINE
  5
B5FA
330
B5E8
100
AcDbEntity
  8
0
  6
CONTINUOUS
100
AcDbLine
 10
4.469029308032756
 20
0.2206254522232385
 30
0.0
 11
5.492951005266582
 21
1.244547149457064
 31
0.0
  0
LINE
  5
B5FB
330
B5E8
100
AcDbEntity
  8
0
  6
CONTINUOUS
100
AcDbLine
 10
5.989594155039935
 20
1.741190299230417
 30
0.0
 11
8.806950407233131
 21
4.558546551423613
 31
0.0
  0
LINE
  5
B5FC
330
B5E8
100
AcDbEntity
  8
0
  6
CONTINUOUS
100
AcDbLine
 10
9.401251593263643
 20
5.152847737454126
 30
0.0
 11
10.47679036721708
 21
6.228386511407559
 31
0.0
  0
LINE
  5
B5FD
330
B5E8
100
AcDbEntity
  8
0
  6
CONTINUOUS
100
AcDbLine
 10
4.921837203428691
 20
-0.0000858614610131
 30
0.0
 11
8.592923064886001
 21
3.670999999996297
 31
0.0
  0
LINE
  5
B5FE
330
B5E8
100
AcDbEntity
  8
0
  6
CONTINUOUS
100
AcDbLine
 10
9.609390446785305
 20
4.6874673818956
 30
0.0
 11
10.68495775058548
 21
5.763034685695775
 31
0.0
  0
LINE
  5
B5FF
330
B5E8
100
AcDbEntity
  8
0
  6
CONTINUOUS
100
AcDbLine
 10
5.595387755019432
 20
-0.0000545189504582
 30
0.0
 11
7.716137258923768
 21
2.120694984953879
 31
0.0
  0
LINE
  5
B600
330
B5E8
100
AcDbEntity
  8
0
  6
CONTINUOUS
100
AcDbLine
 10
6.268938306610172
 20
-0.000023176439905
 30
0.0
 11
7.170485805526503
 21
0.9015243224764267
 31
0.0
  0
LINE
  5
B601
330
B5E8
100
AcDbEntity
  8
0
  6
CONTINUOUS
100
AcDbLine
 10
7.963842273967511
 20
2.368399999997621
 30
0.0
 11
9.266442273966188
 21
3.670999999996297
 31
0.0
  0
LINE
  5
B602
330
B5E8
100
AcDbEntity
  8
0
  6
CONTINUOUS
100
AcDbLine
 10
8.637361483047696
 20
2.368399999997621
 30
0.0
 11
9.939961483046375
 21
3.670999999996297
 31
0.0
  0
LINE
  5
B603
330
B5E8
100
AcDbEntity
  8
0
  6
CONTINUOUS
100
AcDbLine
 10
9.817529300306965
 20
4.222087026337075
 30
0.0
 11
10.89312513395388
 21
5.297682859983993
 31
0.0
  0
LINE
  5
B604
330
B5E8
100
AcDbEntity
  8
0
  6
CONTINUOUS
100
AcDbLine
 10
10.02566815382863
 20
3.756706670778549
 30
0.0
 11
11.10129251732229
 21
4.832331034272211
 31
0.0
  0
LINE
  5
B605
330
B5E8
100
AcDbEntity
  8
0
  6
CONTINUOUS
100
AcDbLine
 10
9.310880692127883
 20
2.368399999997621
 30
0.0
 11
11.30945990069069
 21
4.366979208560428
 31
0.0
  0
LINE
  5
B606
330
B5E8
100
AcDbEntity
  8
0
  6
CONTINUOUS
100
AcDbLine
 10
9.98439990120807
 20
2.36839999999762
 30
0.0
 11
11.5176272840591
 21
3.901627382848645
 31
0.0
  0
LINE
  5
B607
330
B5E8
100
AcDbEntity
  8
0
  6
CONTINUOUS
100
AcDbLine
 10
10.65037369446246
 20
2.36085458417182
 30
0.0
 11
11.7257946674275
 21
3.436275557136862
 31
0.0
  0
LINE
  5
B608
330
B5E8
100
AcDbEntity
  8
0
  6
CONTINUOUS
100
AcDbLine
 10
10.85847197087848
 20
1.895433651507656
 30
0.0
 11
11.9339620507959
 21
2.97092373142508
 31
0.0
  0
LINE
  5
B609
330
B5E8
100
AcDbEntity
  8
0
  6
CONTINUOUS
100
AcDbLine
 10
11.0665702472945
 20
1.430012718843491
 30
0.0
 11
12.14212943416431
 21
2.505571905713296
 31
0.0
  0
LINE
  5
B60A
330
B5E8
100
AcDbEntity
  8
0
  6
CONTINUOUS
100
AcDbLine
 10
11.27466852371052
 20
0.9645917861793256
 30
0.0
 11
12.35029681753271
 21
2.040220080001513
 31
0.0
  0
LINE
  5
B60B
330
B5E8
100
AcDbEntity
  8
0
  6
CONTINUOUS
100
AcDbLine
 10
11.48276680012654
 20
0.4991708535151611
 30
0.0
 11
12.55846420090111
 21
1.57486825428973
 31
0.0
  0
LINE
  5
B60C
330
B5E8
100
AcDbEntity
  8
0
  6
CONTINUOUS
100
AcDbLine
 10
11.69086507654257
 20
0.0337499208509957
 30
0.0
 11
12.76663158426952
 21
1.109516428577947
 31
0.0
  0
LINE
  5
B60D
330
B5E8
100
AcDbEntity
  8
0
  6
CONTINUOUS
100
AcDbLine
 10
12.33057447873954
 20
-0.0000598860322123
 30
0.0
 11
12.97479896763792
 21
0.6441646028661663
 31
0.0
  0
LINE
  5
B60E
330
B5E8
100
AcDbEntity
  8
0
  6
CONTINUOUS
100
AcDbLine
 10
13.00413694809395
 20
-0.0000166257579952
 30
0.0
 11
13.18296635100632
 21
0.1788127771543824
 31
0.0
  0
LINE
  5
B60F
330
B5E8
100
AcDbEntity
  8
0
  6
CONTINUOUS
100
AcDbLine
 10
4.772852165289667
 20
-0.000092794222212
 30
0.0
 11
4.296495091028902
 21
0.4762642800385528
 31
0.0
  0
LINE
  5
B610
330
B5E8
100
AcDbEntity
  8
0
  6
CONTINUOUS
100
AcDbLine
 10
5.446340034776103
 20
-0.0000614546284616
 30
0.0
 11
2.898195908335625
 21
2.548082671812017
 31
0.0
  0
LINE
  5
B611
330
B5E8
100
AcDbEntity
  8
0
  6
CONTINUOUS
100
AcDbLine
 10
6.119827904262539
 20
-0.0000301150347113
 30
0.0
 11
1.499896725642348
 21
4.61990106358548
 31
0.0
  0
LINE
  5
B612
330
B5E8
100
AcDbEntity
  8
0
  6
CONTINUOUS
100
AcDbLine
 10
6.775136745476159
 20
0.0181802528318542
 30
0.0
 11
5.699826040202669
 21
1.093490958105344
 31
0.0
  0
LINE
  5
B613
330
B5E8
100
AcDbEntity
  8
0
  6
CONTINUOUS
100
AcDbLine
 10
6.983376846288489
 20
0.4834593610997118
 30
0.0
 11
5.908008617934405
 21
1.558827589453796
 31
0.0
  0
LINE
  5
B614
330
B5E8
100
AcDbEntity
  8
0
  6
CONTINUOUS
100
AcDbLine
 10
5.377063484962296
 20
1.416253513345719
 30
0.0
 11
1.702276957014131
 21
5.091040041293883
 31
0.0
  0
LINE
  5
B615
330
B5E8
100
AcDbEntity
  8
0
  6
CONTINUOUS
100
AcDbLine
 10
3.978745891735324
 20
3.488090315652877
 30
0.0
 11
2.000373521109399
 21
5.466462686278803
 31
0.0
  0
LINE
  5
B616
330
B5E8
100
AcDbEntity
  8
0
  6
CONTINUOUS
100
AcDbLine
 10
7.191616947100819
 20
0.948738469367568
 30
0.0
 11
6.11619119566614
 21
2.024164220802247
 31
0.0
  0
LINE
  5
B617
330
B5E8
100
AcDbEntity
  8
0
  6
CONTINUOUS
100
AcDbLine
 10
7.399857047913149
 20
1.414017577635424
 30
0.0
 11
6.324373773397875
 21
2.489500852150698
 31
0.0
  0
LINE
  5
B618
330
B5E8
100
AcDbEntity
  8
0
  6
CONTINUOUS
100
AcDbLine
 10
7.608097148725479
 20
1.879296685903281
 30
0.0
 11
6.53255635112961
 21
2.95483748349915
 31
0.0
  0
LINE
  5
B619
330
B5E8
100
AcDbEntity
  8
0
  6
CONTINUOUS
100
AcDbLine
 10
7.816337249537808
 20
2.344575794171138
 30
0.0
 11
6.740738928861345
 21
3.420174114847601
 31
0.0
  0
LINE
  5
B61A
330
B5E8
100
AcDbEntity
  8
0
  6
CONTINUOUS
100
AcDbLine
 10
3.310241080789734
 20
4.830114335678653
 30
0.0
 11
2.298470085204666
 21
5.84188533126372
 31
0.0
  0
LINE
  5
B61B
330
B5E8
100
AcDbEntity
  8
0
  6
CONTINUOUS
100
AcDbLine
 10
3.60832983563551
 20
5.205544789913063
 30
0.0
 11
2.596566649299935
 21
6.217307976248638
 31
0.0
  0
LINE
  5
B61C
330
B5E8
100
AcDbEntity
  8
0
  6
CONTINUOUS
100
AcDbLine
 10
3.906418590481286
 20
5.580975244147473
 30
0.0
 11
2.894663213395203
 21
6.592730621233557
 31
0.0
  0
LINE
  5
B61D
330
B5E8
100
AcDbEntity
  8
0
  6
CONTINUOUS
100
AcDbLine
 10
4.204507345327062
 20
5.956405698381884
 30
0.0
 11
3.192759777490472
 21
6.968153266218474
 31
0.0
  0
LINE
  5
B61E
330
B5E8
100
AcDbEntity
  8
0
  6
CONTINUOUS
100
AcDbLine
 10
8.466032252791512
 20
2.368399999997621
 30
0.0
 11
6.948921506593081
 21
3.885510746196053
 31
0.0
  0
LINE
  5
B61F
330
B5E8
100
AcDbEntity
  8
0
  6
CONTINUOUS
100
AcDbLine
 10
9.139551461871699
 20
2.36839999999762
 30
0.0
 11
7.157104084324816
 21
4.350847377544504
 31
0.0
  0
LINE
  5
B620
330
B5E8
100
AcDbEntity
  8
0
  6
CONTINUOUS
100
AcDbLine
 10
4.502596100172839
 20
6.331836152616295
 30
0.0
 11
3.49085634158574
 21
7.343575911203393
 31
0.0
  0
LINE
  5
B621
330
B5E8
100
AcDbEntity
  8
0
  6
CONTINUOUS
100
AcDbLine
 10
4.800684855018615
 20
6.707266606850705
 30
0.0
 11
3.788952905681008
 21
7.718998556188312
 31
0.0
  0
LINE
  5
B622
330
B5E8
100
AcDbEntity
  8
0
  6
CONTINUOUS
100
AcDbLine
 10
12.18154012887317
 20
-0.0000694579236642
 30
0.0
 11
11.32140332908496
 21
0.8600673418645499
 31
0.0
  0
LINE
  5
B623
330
B5E8
100
AcDbEntity
  8
0
  6
CONTINUOUS
100
AcDbLine
 10
12.85501608323566
 20
-0.0000262032059659
 30
0.0
 11
10.77672456435345
 21
2.078265315676246
 31
0.0
  0
LINE
  5
B624
330
B5E8
100
AcDbEntity
  8
0
  6
CONTINUOUS
100
AcDbLine
 10
9.813070670951886
 20
2.36839999999762
 30
0.0
 11
8.51047067095321
 21
3.670999999996297
 31
0.0
  0
LINE
  5
B625
330
B5E8
100
AcDbEntity
  8
0
  6
CONTINUOUS
100
AcDbLine
 10
10.48658988003207
 20
2.36839999999762
 30
0.0
 11
9.183989880033396
 21
3.670999999996297
 31
0.0
  0
LINE
  5
B626
330
B5E8
100
AcDbEntity
  8
0
  6
CONTINUOUS
100
AcDbLine
 10
8.441048632286794
 20
3.740422038662712
 30
0.0
 11
7.365286662056551
 21
4.816184008892956
 31
0.0
  0
LINE
  5
B627
330
B5E8
100
AcDbEntity
  8
0
  6
CONTINUOUS
100
AcDbLine
 10
8.649187485808454
 20
4.205802394221237
 30
0.0
 11
7.573469239788285
 21
5.281520640241407
 31
0.0
  0
LINE
  5
B628
330
B5E8
100
AcDbEntity
  8
0
  6
CONTINUOUS
100
AcDbLine
 10
5.098773609864391
 20
7.082697061085115
 30
0.0
 11
4.087049469776277
 21
8.09442120117323
 31
0.0
  0
LINE
  5
B629
330
B5E8
100
AcDbEntity
  8
0
  6
CONTINUOUS
100
AcDbLine
 10
5.396862364710167
 20
7.458127515319526
 30
0.0
 11
4.385146033871544
 21
8.469843846158149
 31
0.0
  0
LINE
  5
B62A
330
B5E8
100
AcDbEntity
  8
0
  6
CONTINUOUS
100
AcDbLine
 10
13.04801363231285
 20
0.4804954567970334
 30
0.0
 11
9.85750908911358
 21
3.670999999996297
 31
0.0
  0
LINE
  5
B62B
330
B5E8
100
AcDbEntity
  8
0
  6
CONTINUOUS
100
AcDbLine
 10
8.857326339330116
 20
4.671182749779763
 30
0.0
 11
7.781651817520021
 21
5.746857271589858
 31
0.0
  0
LINE
  5
B62C
330
B5E8
100
AcDbEntity
  8
0
  6
CONTINUOUS
100
AcDbLine
 10
5.694951119555943
 20
7.833557969553937
 30
0.0
 11
4.765409089118624
 21
8.763099999991255
 31
0.0
  0
LINE
  5
B62D
330
B5E8
100
AcDbEntity
  8
0
  6
CONTINUOUS
100
AcDbLine
 10
12.50286117236978
 20
1.699167125820288
 30
0.0
 11
9.68611877250287
 21
4.515909525687196
 31
0.0
  0
LINE
  5
B62E
330
B5E8
100
AcDbEntity
  8
0
  6
CONTINUOUS
100
AcDbLine
 10
9.065465192851777
 20
5.136563105338288
 30
0.0
 11
7.989834395251757
 21
6.21219390293831
 31
0.0
  0
LINE
  5
B62F
330
B5E8
100
AcDbEntity
  8
0
  6
CONTINUOUS
100
AcDbLine
 10
5.993039874401719
 20
8.208988423788346
 30
0.0
 11
5.43892829819881
 21
8.763099999991255
 31
0.0
  0
LINE
  5
B630
330
B5E8
100
AcDbEntity
  8
0
  6
CONTINUOUS
100
AcDbLine
 10
11.95770871242671
 20
2.917838794843543
 30
0.0
 11
8.19801697298349
 21
6.677530534286761
 31
0.0
  0
LINE
  5
B631
330
B5E8
100
AcDbEntity
  8
0
  6
CONTINUOUS
100
AcDbLine
 10
6.291128629247495
 20
8.584418878022756
 30
0.0
 11
6.112447507278997
 21
8.763099999991255
 31
0.0
  0
LINE
  5
B632
330
B5E8
100
AcDbEntity
  8
0
  6
CONTINUOUS
100
AcDbLine
 10
11.41255625248364
 20
4.136510463866797
 30
0.0
 11
8.406199550715227
 21
7.142867165635211
 31
0.0
  0
LINE
  5
B633
330
B5E8
100
AcDbEntity
  8
0
  6
CONTINUOUS
100
AcDbLine
 10
10.86740379254057
 20
5.355182132890051
 30
0.0
 11
8.614382128446962
 21
7.608203796983664
 31
0.0
  0
LINE
  5
B634
330
B5E8
100
AcDbEntity
  8
0
  6
CONTINUOUS
100
AcDbLine
 10
10.3222513325975
 20
6.573853801913305
 30
0.0
 11
8.822564706178696
 21
8.073540428332114
 31
0.0
  0
LINE
  5
B635
330
B5E8
100
AcDbEntity
  8
0
  6
CONTINUOUS
100
AcDbLine
 10
9.777098872654436
 20
7.792525470936562
 30
0.0
 11
9.030747283910433
 21
8.538877059680566
 31
0.0
  0
ENDBLK
  5
B777
330
B5E8
100
AcDbEntity
  8
0
100
AcDbBlockEnd
  0
BLOCK
  5
B778
330
B636
100
AcDbEntity
  8
0
100
AcDbBlockBegin
  2
*X75
 70
     1
 10
0.0
 20
0.0
 30
0.0
  3
*X75
  1

  0
LINE
  5
B637
330
B636
100
AcDbEntity
  8
0
  6
CONTINUOUS
100
AcDbLine
 10
10.67292308101235
 20
8.445076852443387
 30
0.0
 11
10.99094622856022
 21
8.763099999991255
 31
0.0
  0
LINE
  5
B638
330
B636
100
AcDbEntity
  8
0
  6
CONTINUOUS
100
AcDbLine
 10
10.87250383178748
 20
7.971138394138331
 30
0.0
 11
11.6644654376404
 21
8.763099999991255
 31
0.0
  0
LINE
  5
B639
330
B636
100
AcDbEntity
  8
0
  6
CONTINUOUS
100
AcDbLine
 10
11.07208458256261
 20
7.497199935833273
 30
0.0
 11
12.12126590876355
 21
8.546381262034211
 31
0.0
  0
LINE
  5
B63A
330
B636
100
AcDbEntity
  8
0
  6
CONTINUOUS
100
AcDbLine
 10
11.27166533333774
 20
7.023261477528216
 30
0.0
 11
12.32085164573666
 21
8.072447789927136
 31
0.0
  0
LINE
  5
B63B
330
B636
100
AcDbEntity
  8
0
  6
CONTINUOUS
100
AcDbLine
 10
11.47124608411287
 20
6.549323019223158
 30
0.0
 11
12.52043738270977
 21
7.59851431782006
 31
0.0
  0
LINE
  5
B63C
330
B636
100
AcDbEntity
  8
0
  6
CONTINUOUS
100
AcDbLine
 10
11.670826834888
 20
6.075384560918101
 30
0.0
 11
12.72002311968288
 21
7.124580845712984
 31
0.0
  0
LINE
  5
B63D
330
B636
100
AcDbEntity
  8
0
  6
CONTINUOUS
100
AcDbLine
 10
11.87040758566313
 20
5.601446102613043
 30
0.0
 11
12.91960885665599
 21
6.650647373605907
 31
0.0
  0
LINE
  5
B63E
330
B636
100
AcDbEntity
  8
0
  6
CONTINUOUS
100
AcDbLine
 10
12.06998833643825
 20
5.127507644307986
 30
0.0
 11
13.1191945936291
 21
6.176713901498832
 31
0.0
  0
LINE
  5
B63F
330
B636
100
AcDbEntity
  8
0
  6
CONTINUOUS
100
AcDbLine
 10
12.26956908721338
 20
4.65356918600293
 30
0.0
 11
13.31878033060221
 21
5.702780429391757
 31
0.0
  0
LINE
  5
B640
330
B636
100
AcDbEntity
  8
0
  6
CONTINUOUS
100
AcDbLine
 10
12.46914983798851
 20
4.179630727697873
 30
0.0
 11
13.51836606757532
 21
5.228846957284683
 31
0.0
  0
LINE
  5
B641
330
B636
100
AcDbEntity
  8
0
  6
CONTINUOUS
100
AcDbLine
 10
12.66873058876364
 20
3.705692269392816
 30
0.0
 11
13.71795180454843
 21
4.754913485177607
 31
0.0
  0
LINE
  5
B642
330
B636
100
AcDbEntity
  8
0
  6
CONTINUOUS
100
AcDbLine
 10
12.86831133953877
 20
3.231753811087759
 30
0.0
 11
13.91753754152154
 21
4.280980013070531
 31
0.0
  0
LINE
  5
B643
330
B636
100
AcDbEntity
  8
0
  6
CONTINUOUS
100
AcDbLine
 10
13.0678920903139
 20
2.757815352782702
 30
0.0
 11
14.11712327849465
 21
3.807046540963456
 31
0.0
  0
LINE
  5
B644
330
B636
100
AcDbEntity
  8
0
  6
CONTINUOUS
100
AcDbLine
 10
13.26747284108903
 20
2.283876894477644
 30
0.0
 11
14.31670901546777
 21
3.333113068856379
 31
0.0
  0
LINE
  5
B645
330
B636
100
AcDbEntity
  8
0
  6
CONTINUOUS
100
AcDbLine
 10
16.36767838827179
 20
8.751678487061342
 30
0.0
 11
16.50332410898388
 21
8.887324207773432
 31
0.0
  0
LINE
  5
B646
330
B636
100
AcDbEntity
  8
0
  6
CONTINUOUS
100
AcDbLine
 10
15.96190732182191
 20
7.67238821153127
 30
0.0
 11
16.68735328004734
 21
8.397834169756699
 31
0.0
  0
LINE
  5
B647
330
B636
100
AcDbEntity
  8
0
  6
CONTINUOUS
100
AcDbLine
 10
15.55613625537202
 20
6.593097936001196
 30
0.0
 11
16.87138245111079
 21
7.908344131739965
 31
0.0
  0
LINE
  5
B648
330
B636
100
AcDbEntity
  8
0
  6
CONTINUOUS
100
AcDbLine
 10
15.15036518892213
 20
5.513807660471122
 30
0.0
 11
17.05541162217424
 21
7.418854093723231
 31
0.0
  0
LINE
  5
B649
330
B636
100
AcDbEntity
  8
0
  6
CONTINUOUS
100
AcDbLine
 10
14.74459412247225
 20
4.434517384941048
 30
0.0
 11
17.2394407932377
 21
6.929364055706499
 31
0.0
  0
LINE
  5
B64A
330
B636
100
AcDbEntity
  8
0
  6
CONTINUOUS
100
AcDbLine
 10
14.33882305602236
 20
3.355227109410975
 30
0.0
 11
17.42346996430115
 21
6.439874017689766
 31
0.0
  0
LINE
  5
B64B
330
B636
100
AcDbEntity
  8
0
  6
CONTINUOUS
100
AcDbLine
 10
13.46705359186416
 20
1.809938436172586
 30
0.0
 11
16.0819338255367
 21
4.424818669845129
 31
0.0
  0
LINE
  5
B64C
330
B636
100
AcDbEntity
  8
0
  6
CONTINUOUS
100
AcDbLine
 10
16.63283254238972
 20
4.975717386698149
 30
0.0
 11
17.60749913536461
 21
5.950383979673033
 31
0.0
  0
LINE
  5
B64D
330
B636
100
AcDbEntity
  8
0
  6
CONTINUOUS
100
AcDbLine
 10
13.66663434263929
 20
1.335999977867529
 30
0.0
 11
15.67604797733754
 21
3.345413612565779
 31
0.0
  0
LINE
  5
B64E
330
B636
100
AcDbEntity
  8
0
  6
CONTINUOUS
100
AcDbLine
 10
13.86621509341442
 20
0.8620615195624723
 30
0.0
 11
15.27016212913838
 21
2.26600855528643
 31
0.0
  0
LINE
  5
B64F
330
B636
100
AcDbEntity
  8
0
  6
CONTINUOUS
100
AcDbLine
 10
16.81682257348267
 20
4.486188208710908
 30
0.0
 11
17.79152830642806
 21
5.460893941656299
 31
0.0
  0
LINE
  5
B650
330
B636
100
AcDbEntity
  8
0
  6
CONTINUOUS
100
AcDbLine
 10
17.00081260457561
 20
3.996659030723667
 30
0.0
 11
17.97555747749151
 21
4.971403903639565
 31
0.0
  0
LINE
  5
B651
330
B636
100
AcDbEntity
  8
0
  6
CONTINUOUS
100
AcDbLine
 10
20.74362343514722
 20
8.412989070375462
 30
0.0
 11
21.09373436476302
 21
8.763099999991256
 31
0.0
  0
LINE
  5
B652
330
B636
100
AcDbEntity
  8
0
  6
CONTINUOUS
100
AcDbLine
 10
20.25401257174777
 20
7.249858997895826
 30
0.0
 11
21.7672535738432
 21
8.763099999991255
 31
0.0
  0
LINE
  5
B653
330
B636
100
AcDbEntity
  8
0
  6
CONTINUOUS
100
AcDbLine
 10
14.06579584418955
 20
0.3881230612574149
 30
0.0
 11
14.86427628093921
 21
1.186603498007082
 31
0.0
  0
LINE
  5
B654
330
B636
100
AcDbEntity
  8
0
  6
CONTINUOUS
100
AcDbLine
 10
14.26537659496467
 20
-0.0858153970476412
 30
0.0
 11
14.45839043274005
 21
0.1071984407277329
 31
0.0
  0
LINE
  5
B655
330
B636
100
AcDbEntity
  8
0
  6
CONTINUOUS
100
AcDbLine
 10
17.18480263566856
 20
3.507129852736426
 30
0.0
 11
18.15958664855496
 21
4.481913865622833
 31
0.0
  0
LINE
  5
B656
330
B636
100
AcDbEntity
  8
0
  6
CONTINUOUS
100
AcDbLine
 10
17.3687926667615
 20
3.017600674749186
 30
0.0
 11
18.34361581961842
 21
3.9924238276061
 31
0.0
  0
LINE
  5
B657
330
B636
100
AcDbEntity
  8
0
  6
CONTINUOUS
100
AcDbLine
 10
19.76440170834832
 20
6.086728925416191
 30
0.0
 11
22.33924590259489
 21
8.661573119662755
 31
0.0
  0
LINE
  5
B658
330
B636
100
AcDbEntity
  8
0
  6
CONTINUOUS
100
AcDbLine
 10
19.27479084494887
 20
4.923598852936555
 30
0.0
 11
21.84929622842713
 21
7.498104236414807
 31
0.0
  0
LINE
  5
B659
330
B636
100
AcDbEntity
  8
0
  6
CONTINUOUS
100
AcDbLine
 10
17.55278269785445
 20
2.528071496761945
 30
0.0
 11
18.52764499068187
 21
3.502933789589366
 31
0.0
  0
LINE
  5
B65A
330
B636
100
AcDbEntity
  8
0
  6
CONTINUOUS
100
AcDbLine
 10
18.78517998154942
 20
3.760468780456919
 30
0.0
 11
21.35934655425936
 21
6.33463535316686
 31
0.0
  0
LINE
  5
B65B
330
B636
100
AcDbEntity
  8
0
  6
CONTINUOUS
100
AcDbLine
 10
17.73677272894739
 20
2.038542318774704
 30
0.0
 11
20.8693968800916
 21
5.171166469918914
 31
0.0
  0
LINE
  5
B65C
330
B636
100
AcDbEntity
  8
0
  6
CONTINUOUS
100
AcDbLine
 10
17.92076276004034
 20
1.549013140787464
 30
0.0
 11
20.37944720592384
 21
4.007697586670968
 31
0.0
  0
LINE
  5
B65D
330
B636
100
AcDbEntity
  8
0
  6
CONTINUOUS
100
AcDbLine
 10
18.10475279113329
 20
1.059483962800223
 30
0.0
 11
19.88949753175608
 21
2.84422870342302
 31
0.0
  0
LINE
  5
B65E
330
B636
100
AcDbEntity
  8
0
  6
CONTINUOUS
100
AcDbLine
 10
18.28874282222623
 20
0.5699547848129822
 30
0.0
 11
19.39954785758832
 21
1.680759820175074
 31
0.0
  0
LINE
  5
B65F
330
B636
100
AcDbEntity
  8
0
  6
CONTINUOUS
100
AcDbLine
 10
18.47273285331918
 20
0.0804256068257416
 30
0.0
 11
18.90959818342056
 21
0.517290936927127
 31
0.0
  0
LINE
  5
B660
330
B636
100
AcDbEntity
  8
0
  6
CONTINUOUS
100
AcDbLine
 10
14.3590401358224
 20
-0.1570118376323384
 30
0.0
 11
14.24903296539946
 21
-0.0470046672093929
 31
0.0
  0
LINE
  5
B661
330
B636
100
AcDbEntity
  8
0
  6
CONTINUOUS
100
AcDbLine
 10
14.54309291258661
 20
0.332454594683643
 30
0.0
 11
13.75908329123172
 21
1.116464216038529
 31
0.0
  0
LINE
  5
B662
330
B636
100
AcDbEntity
  8
0
  6
CONTINUOUS
100
AcDbLine
 10
14.72714568935081
 20
0.8219210269996244
 30
0.0
 11
13.26913361706399
 21
2.27993309928645
 31
0.0
  0
LINE
  5
B663
330
B636
100
AcDbEntity
  8
0
  6
CONTINUOUS
100
AcDbLine
 10
14.91119846611502
 20
1.311387459315606
 30
0.0
 11
12.77918394289625
 21
3.443401982534371
 31
0.0
  0
LINE
  5
B664
330
B636
100
AcDbEntity
  8
0
  6
CONTINUOUS
100
AcDbLine
 10
15.09525124287922
 20
1.800853891631587
 30
0.0
 11
12.28923426872852
 21
4.606870865782293
 31
0.0
  0
LINE
  5
B665
330
B636
100
AcDbEntity
  8
0
  6
CONTINUOUS
100
AcDbLine
 10
15.27930401964343
 20
2.290320323947569
 30
0.0
 11
11.79928459456078
 21
5.770339749030213
 31
0.0
  0
LINE
  5
B666
330
B636
100
AcDbEntity
  8
0
  6
CONTINUOUS
100
AcDbLine
 10
15.46335679640763
 20
2.77978675626355
 30
0.0
 11
14.48885470994921
 21
3.754288842721972
 31
0.0
  0
LINE
  5
B667
330
B636
100
AcDbEntity
  8
0
  6
CONTINUOUS
100
AcDbLine
 10
13.88507249233704
 20
4.358071060334137
 30
0.0
 11
11.30933492039305
 21
6.933808632278135
 31
0.0
  0
LINE
  5
B668
330
B636
100
AcDbEntity
  8
0
  6
CONTINUOUS
100
AcDbLine
 10
18.75840522805855
 20
0.1582575336928151
 30
0.0
 11
18.25383727664818
 21
0.6628254851031863
 31
0.0
  0
LINE
  5
B669
330
B636
100
AcDbEntity
  8
0
  6
CONTINUOUS
100
AcDbLine
 10
15.64740957317184
 20
3.269253188579531
 30
0.0
 11
14.67288388101266
 21
4.243778880738705
 31
0.0
  0
LINE
  5
B66A
330
B636
100
AcDbEntity
  8
0
  6
CONTINUOUS
100
AcDbLine
 10
13.39509276772158
 20
5.521569994029786
 30
0.0
 11
10.81938524622531
 21
8.097277515526056
 31
0.0
  0
LINE
  5
B66B
330
B636
100
AcDbEntity
  8
0
  6
CONTINUOUS
100
AcDbLine
 10
18.95798597883369
 20
0.6321959919978686
 30
0.0
 11
17.84825644852853
 21
1.741925522303024
 31
0.0
  0
LINE
  5
B66C
330
B636
100
AcDbEntity
  8
0
  6
CONTINUOUS
100
AcDbLine
 10
19.15756672960882
 20
1.106134450302922
 30
0.0
 11
17.44267562040888
 21
2.821025559502861
 31
0.0
  0
LINE
  5
B66D
330
B636
100
AcDbEntity
  8
0
  6
CONTINUOUS
100
AcDbLine
 10
15.83146234993604
 20
3.758719620895513
 30
0.0
 11
14.85691305207612
 21
4.733268918755439
 31
0.0
  0
LINE
  5
B66E
330
B636
100
AcDbEntity
  8
0
  6
CONTINUOUS
100
AcDbLine
 10
16.01551512670025
 20
4.248186053211494
 30
0.0
 11
15.04094222313957
 21
5.222758956772172
 31
0.0
  0
LINE
  5
B66F
330
B636
100
AcDbEntity
  8
0
  6
CONTINUOUS
100
AcDbLine
 10
12.90511304310612
 20
6.685068927725435
 30
0.0
 11
10.8270819708403
 21
8.763099999991255
 31
0.0
  0
LINE
  5
B670
330
B636
100
AcDbEntity
  8
0
  6
CONTINUOUS
100
AcDbLine
 10
12.41513331849066
 20
7.848567861421083
 30
0.0
 11
11.50060117992049
 21
8.763099999991255
 31
0.0
  0
LINE
  5
B671
330
B636
100
AcDbEntity
  8
0
  6
CONTINUOUS
100
AcDbLine
 10
19.35714748038395
 20
1.580072908607975
 30
0.0
 11
17.03709479228923
 21
3.900125596702697
 31
0.0
  0
LINE
  5
B672
330
B636
100
AcDbEntity
  8
0
  6
CONTINUOUS
100
AcDbLine
 10
19.55672823115909
 20
2.054011366913028
 30
0.0
 11
16.63151396416958
 21
4.979225633902534
 31
0.0
  0
LINE
  5
B673
330
B636
100
AcDbEntity
  8
0
  6
CONTINUOUS
100
AcDbLine
 10
16.19956790346445
 20
4.737652485527476
 30
0.0
 11
15.22497139420302
 21
5.712248994788904
 31
0.0
  0
LINE
  5
B674
330
B636
100
AcDbEntity
  8
0
  6
CONTINUOUS
100
AcDbLine
 10
16.38362068022866
 20
5.227118917843457
 30
0.0
 11
15.40900056526648
 21
6.201739032805637
 31
0.0
  0
LINE
  5
B675
330
B636
100
AcDbEntity
  8
0
  6
CONTINUOUS
100
AcDbLine
 10
19.75630898193422
 20
2.527949825218081
 30
0.0
 11
18.70774536448286
 21
3.576513442669441
 31
0.0
  0
LINE
  5
B676
330
B636
100
AcDbEntity
  8
0
  6
CONTINUOUS
100
AcDbLine
 10
19.95588973270936
 20
3.001888283523134
 30
0.0
 11
18.90726987211446
 21
4.050508144118028
 31
0.0
  0
LINE
  5
B677
330
B636
100
AcDbEntity
  8
0
  6
CONTINUOUS
100
AcDbLine
 10
20.15547048348449
 20
3.475826741828186
 30
0.0
 11
19.10679437974606
 21
4.524502845566614
 31
0.0
  0
LINE
  5
B678
330
B636
100
AcDbEntity
  8
0
  6
CONTINUOUS
100
AcDbLine
 10
20.35505123425962
 20
3.94976520013324
 30
0.0
 11
19.30631888737766
 21
4.998497547015201
 31
0.0
  0
LINE
  5
B679
330
B636
100
AcDbEntity
  8
0
  6
CONTINUOUS
100
AcDbLine
 10
20.55463198503475
 20
4.423703658438292
 30
0.0
 11
19.50584339500926
 21
5.472492248463787
 31
0.0
  0
LINE
  5
B67A
330
B636
100
AcDbEntity
  8
0
  6
CONTINUOUS
100
AcDbLine
 10
18.37481191085755
 20
3.909446896294752
 30
0.0
 11
15.59302973632993
 21
6.691229070822371
 31
0.0
  0
LINE
  5
B67B
330
B636
100
AcDbEntity
  8
0
  6
CONTINUOUS
100
AcDbLine
 10
17.96904084440766
 20
4.988737171824825
 30
0.0
 11
15.77705890739338
 21
7.180719108839104
 31
0.0
  0
LINE
  5
B67C
330
B636
100
AcDbEntity
  8
0
  6
CONTINUOUS
100
AcDbLine
 10
17.56326977795777
 20
6.068027447354899
 30
0.0
 11
15.96108807845684
 21
7.670209146855838
 31
0.0
  0
LINE
  5
B67D
330
B636
100
AcDbEntity
  8
0
  6
CONTINUOUS
100
AcDbLine
 10
17.15749871150789
 20
7.147317722884972
 30
0.0
 11
16.14511724952029
 21
8.15969918487257
 31
0.0
  0
LINE
  5
B67E
330
B636
100
AcDbEntity
  8
0
  6
CONTINUOUS
100
AcDbLine
 10
16.751727645058
 20
8.226607998415046
 30
0.0
 11
16.32914642058374
 21
8.649189222889303
 31
0.0
  0
LINE
  5
B67F
330
B636
100
AcDbEntity
  8
0
  6
CONTINUOUS
100
AcDbLine
 10
20.75421273580989
 20
4.897642116743345
 30
0.0
 11
19.70536790264086
 21
5.946486949912374
 31
0.0
  0
LINE
  5
B680
330
B636
100
AcDbEntity
  8
0
  6
CONTINUOUS
100
AcDbLine
 10
20.95379348658502
 20
5.371580575048398
 30
0.0
 11
19.90489241027246
 21
6.42048165136096
 31
0.0
  0
LINE
  5
B681
330
B636
100
AcDbEntity
  8
0
  6
CONTINUOUS
100
AcDbLine
 10
21.15337423736015
 20
5.845519033353452
 30
0.0
 11
20.10441691790406
 21
6.894476352809547
 31
0.0
  0
LINE
  5
B682
330
B636
100
AcDbEntity
  8
0
  6
CONTINUOUS
100
AcDbLine
 10
21.35295498813529
 20
6.319457491658505
 30
0.0
 11
20.30394142553566
 21
7.368471054258134
 31
0.0
  0
LINE
  5
B683
330
B636
100
AcDbEntity
  8
0
  6
CONTINUOUS
100
AcDbLine
 10
21.55253573891042
 20
6.793395949963558
 30
0.0
 11
20.50346593316726
 21
7.842465755706721
 31
0.0
  0
LINE
  5
B684
330
B636
100
AcDbEntity
  8
0
  6
CONTINUOUS
100
AcDbLine
 10
21.75211648968556
 20
7.267334408268612
 30
0.0
 11
20.70299044079886
 21
8.316460457155308
 31
0.0
  0
LINE
  5
B685
330
B636
100
AcDbEntity
  8
0
  6
CONTINUOUS
100
AcDbLine
 10
21.95169724046069
 20
7.741272866573663
 30
0.0
 11
20.9298701070431
 21
8.763099999991256
 31
0.0
  0
LINE
  5
B686
330
B636
100
AcDbEntity
  8
0
  6
CONTINUOUS
100
AcDbLine
 10
22.15127799123582
 20
8.215211324878716
 30
0.0
 11
21.60338931612328
 21
8.763099999991256
 31
0.0
  0
LINE
  5
B687
330
B636
100
AcDbEntity
  8
0
  6
CONTINUOUS
100
AcDbLine
 10
22.35085874201096
 20
8.689149783183769
 30
0.0
 11
22.27690852520347
 21
8.763099999991255
 31
0.0
  0
ENDBLK
  5
B779
330
B636
100
AcDbEntity
  8
0
100
AcDbBlockEnd
  0
BLOCK
  5
B77A
330
B688
100
AcDbEntity
  8
0
100
AcDbBlockBegin
  2
*X76
 70
     1
 10
0.0
 20
0.0
 30
0.0
  3
*X76
  1

  0
LINE
  5
B689
330
B688
100
AcDbEntity
  8
0
  6
CONTINUOUS
100
AcDbLine
 10
23.19462913593892
 20
8.169917934846424
 30
0.0
 11
23.70775465517246
 21
8.683043454079957
 31
0.0
  0
LINE
  5
B68A
330
B688
100
AcDbEntity
  8
0
  6
CONTINUOUS
100
AcDbLine
 10
22.64923161835078
 20
6.951001208178088
 30
0.0
 11
23.9159364069932
 21
8.217705996820516
 31
0.0
  0
LINE
  5
B68B
330
B688
100
AcDbEntity
  8
0
  6
CONTINUOUS
100
AcDbLine
 10
22.10383410076263
 20
5.732084481509751
 30
0.0
 11
24.12411815881395
 21
7.752368539561078
 31
0.0
  0
LINE
  5
B68C
330
B688
100
AcDbEntity
  8
0
  6
CONTINUOUS
100
AcDbLine
 10
21.55843658317447
 20
4.513167754841414
 30
0.0
 11
24.3322999106347
 21
7.287031082301639
 31
0.0
  0
LINE
  5
B68D
330
B688
100
AcDbEntity
  8
0
  6
CONTINUOUS
100
AcDbLine
 10
21.01303906558632
 20
3.294251028173077
 30
0.0
 11
24.54048166245544
 21
6.821693625042199
 31
0.0
  0
LINE
  5
B68E
330
B688
100
AcDbEntity
  8
0
  6
CONTINUOUS
100
AcDbLine
 10
20.46764154799817
 20
2.075334301504738
 30
0.0
 11
23.28571549467848
 21
4.89340824818505
 31
0.0
  0
LINE
  5
B68F
330
B688
100
AcDbEntity
  8
0
  6
CONTINUOUS
100
AcDbLine
 10
19.92224403041002
 20
0.8564175748364002
 30
0.0
 11
22.74075865492779
 21
3.674932199354171
 31
0.0
  0
LINE
  5
B690
330
B688
100
AcDbEntity
  8
0
  6
CONTINUOUS
100
AcDbLine
 10
23.67305085490148
 20
5.280743608408048
 30
0.0
 11
24.74866341427619
 21
6.356356167782759
 31
0.0
  0
LINE
  5
B691
330
B688
100
AcDbEntity
  8
0
  6
CONTINUOUS
100
AcDbLine
 10
23.88118970842314
 20
4.815363252849522
 30
0.0
 11
24.95684516609694
 21
5.89101871052332
 31
0.0
  0
LINE
  5
B692
330
B688
100
AcDbEntity
  8
0
  6
CONTINUOUS
100
AcDbLine
 10
19.73925852647308
 20
-0.0000871381807288
 30
0.0
 11
23.4103456646501
 21
3.670999999996297
 31
0.0
  0
LINE
  5
B693
330
B688
100
AcDbEntity
  8
0
  6
CONTINUOUS
100
AcDbLine
 10
24.0893285619448
 20
4.349982897290997
 30
0.0
 11
25.16502691791769
 21
5.42568125326388
 31
0.0
  0
LINE
  5
B694
330
B688
100
AcDbEntity
  8
0
  6
CONTINUOUS
100
AcDbLine
 10
20.41282099582748
 20
-0.0000438779065108
 30
0.0
 11
21.64944178675636
 21
1.236576913022366
 31
0.0
  0
LINE
  5
B695
330
B688
100
AcDbEntity
  8
0
  6
CONTINUOUS
100
AcDbLine
 10
22.78126487373161
 20
2.36839999999762
 30
0.0
 11
24.08386487373029
 21
3.670999999996297
 31
0.0
  0
LINE
  5
B696
330
B688
100
AcDbEntity
  8
0
  6
CONTINUOUS
100
AcDbLine
 10
24.29746741546646
 20
3.884602541732471
 30
0.0
 11
25.37320866973843
 21
4.960343796004441
 31
0.0
  0
LINE
  5
B697
330
B688
100
AcDbEntity
  8
0
  6
CONTINUOUS
100
AcDbLine
 10
21.08638346518189
 20
-0.0000006176322938
 30
0.0
 11
21.10379033335899
 21
0.0174062505448083
 31
0.0
  0
LINE
  5
B698
330
B688
100
AcDbEntity
  8
0
  6
CONTINUOUS
100
AcDbLine
 10
23.4547840828118
 20
2.36839999999762
 30
0.0
 11
25.58139042155918
 21
4.495006338745002
 31
0.0
  0
LINE
  5
B699
330
B688
100
AcDbEntity
  8
0
  6
CONTINUOUS
100
AcDbLine
 10
29.30199999996933
 20
8.215615917155148
 30
0.0
 11
29.84948408280543
 21
8.763099999991255
 31
0.0
  0
LINE
  5
B69A
330
B688
100
AcDbEntity
  8
0
  6
CONTINUOUS
100
AcDbLine
 10
24.12830329189199
 20
2.36839999999762
 30
0.0
 11
25.78957217337993
 21
4.029668881485562
 31
0.0
  0
LINE
  5
B69B
330
B688
100
AcDbEntity
  8
0
  6
CONTINUOUS
100
AcDbLine
 10
29.30199999996933
 20
7.54209670807496
 30
0.0
 11
30.52300329188562
 21
8.763099999991255
 31
0.0
  0
LINE
  5
B69C
330
B688
100
AcDbEntity
  8
0
  6
CONTINUOUS
100
AcDbLine
 10
24.80182250097217
 20
2.36839999999762
 30
0.0
 11
25.99775392520067
 21
3.564331424226122
 31
0.0
  0
LINE
  5
B69D
330
B688
100
AcDbEntity
  8
0
  6
CONTINUOUS
100
AcDbLine
 10
29.30199999996933
 20
6.868577498994774
 30
0.0
 11
30.74199999996926
 21
8.308577498994712
 31
0.0
  0
LINE
  5
B69E
330
B688
100
AcDbEntity
  8
0
  6
CONTINUOUS
100
AcDbLine
 10
25.13028238392013
 20
2.023340673865392
 30
0.0
 11
26.20593567702142
 21
3.098993966966683
 31
0.0
  0
LINE
  5
B69F
330
B688
100
AcDbEntity
  8
0
  6
CONTINUOUS
100
AcDbLine
 10
25.33838066033617
 20
1.557919741201244
 30
0.0
 11
26.41411742884217
 21
2.633656509707244
 31
0.0
  0
LINE
  5
B6A0
330
B688
100
AcDbEntity
  8
0
  6
CONTINUOUS
100
AcDbLine
 10
25.54647893675221
 20
1.092498808537098
 30
0.0
 11
26.62229918066291
 21
2.168319052447804
 31
0.0
  0
LINE
  5
B6A1
330
B688
100
AcDbEntity
  8
0
  6
CONTINUOUS
100
AcDbLine
 10
25.75457721316825
 20
0.62707787587295
 30
0.0
 11
26.83048093248366
 21
1.702981595188365
 31
0.0
  0
LINE
  5
B6A2
330
B688
100
AcDbEntity
  8
0
  6
CONTINUOUS
100
AcDbLine
 10
29.30199999996933
 20
6.195058289914587
 30
0.0
 11
30.74199999996926
 21
7.635058289914522
 31
0.0
  0
LINE
  5
B6A3
330
B688
100
AcDbEntity
  8
0
  6
CONTINUOUS
100
AcDbLine
 10
29.30199999996933
 20
5.521539080834401
 30
0.0
 11
30.74199999996926
 21
6.961539080834331
 31
0.0
  0
LINE
  5
B6A4
330
B688
100
AcDbEntity
  8
0
  6
CONTINUOUS
100
AcDbLine
 10
29.30199999996933
 20
4.848019871754214
 30
0.0
 11
30.74199999996925
 21
6.288019871754143
 31
0.0
  0
LINE
  5
B6A5
330
B688
100
AcDbEntity
  8
0
  6
CONTINUOUS
100
AcDbLine
 10
29.30199999996933
 20
4.174500662674028
 30
0.0
 11
30.74199999996925
 21
5.614500662673953
 31
0.0
  0
LINE
  5
B6A6
330
B688
100
AcDbEntity
  8
0
  6
CONTINUOUS
100
AcDbLine
 10
25.96267548958429
 20
0.1616569432088024
 30
0.0
 11
27.18411854636669
 21
1.383099999991207
 31
0.0
  0
LINE
  5
B6A7
330
B688
100
AcDbEntity
  8
0
  6
CONTINUOUS
100
AcDbLine
 10
29.30199999996933
 20
3.500981453593841
 30
0.0
 11
30.74199999996925
 21
4.940981453593762
 31
0.0
  0
LINE
  5
B6A8
330
B688
100
AcDbEntity
  8
0
  6
CONTINUOUS
100
AcDbLine
 10
26.50763775544691
 20
0.0330999999912356
 30
0.0
 11
27.85763775544689
 21
1.383099999991223
 31
0.0
  0
LINE
  5
B6A9
330
B688
100
AcDbEntity
  8
0
  6
CONTINUOUS
100
AcDbLine
 10
29.30199999996933
 20
2.827462244513656
 30
0.0
 11
30.74199999996925
 21
4.267462244513574
 31
0.0
  0
LINE
  5
B6AA
330
B688
100
AcDbEntity
  8
0
  6
CONTINUOUS
100
AcDbLine
 10
27.18115696452709
 20
0.0330999999912356
 30
0.0
 11
28.55073879889363
 21
1.402681834357775
 31
0.0
  0
LINE
  5
B6AB
330
B688
100
AcDbEntity
  8
0
  6
CONTINUOUS
100
AcDbLine
 10
29.28241816560272
 20
2.134361201066866
 30
0.0
 11
30.74199999996924
 21
3.593943035433383
 31
0.0
  0
LINE
  5
B6AC
330
B688
100
AcDbEntity
  8
0
  6
CONTINUOUS
100
AcDbLine
 10
27.85467617360728
 20
0.0330999999912356
 30
0.0
 11
30.74199999996924
 21
2.920423826353195
 31
0.0
  0
LINE
  5
B6AD
330
B688
100
AcDbEntity
  8
0
  6
CONTINUOUS
100
AcDbLine
 10
28.53897559587887
 20
0.0438802131826428
 30
0.0
 11
30.73121978677781
 21
2.236124404081585
 31
0.0
  0
LINE
  5
B6AE
330
B688
100
AcDbEntity
  8
0
  6
CONTINUOUS
100
AcDbLine
 10
29.45140055588722
 20
0.2827859641107988
 30
0.0
 11
30.49231403584965
 21
1.323699444073236
 31
0.0
  0
LINE
  5
B6AF
330
B688
100
AcDbEntity
  8
0
  6
CONTINUOUS
100
AcDbLine
 10
19.59027867740337
 20
-0.0000967065718083
 30
0.0
 11
19.55485265190471
 21
0.035329318926844
 31
0.0
  0
LINE
  5
B6B0
330
B688
100
AcDbEntity
  8
0
  6
CONTINUOUS
100
AcDbLine
 10
20.26375463176586
 20
-0.0000534518541091
 30
0.0
 11
19.76305575737534
 21
0.5006454225364014
 31
0.0
  0
LINE
  5
B6B1
330
B688
100
AcDbEntity
  8
0
  6
CONTINUOUS
100
AcDbLine
 10
20.93723058612834
 20
-0.0000101971364099
 30
0.0
 11
19.97125886284597
 21
0.965961526145958
 31
0.0
  0
LINE
  5
B6B2
330
B688
100
AcDbEntity
  8
0
  6
CONTINUOUS
100
AcDbLine
 10
21.25514828313686
 20
0.355591314935257
 30
0.0
 11
20.1794619683166
 21
1.431277629755512
 31
0.0
  0
LINE
  5
B6B3
330
B688
100
AcDbEntity
  8
0
  6
CONTINUOUS
100
AcDbLine
 10
21.46338838394921
 20
0.8208704232030986
 30
0.0
 11
20.38766507378723
 21
1.896593733365069
 31
0.0
  0
LINE
  5
B6B4
330
B688
100
AcDbEntity
  8
0
  6
CONTINUOUS
100
AcDbLine
 10
21.67162848476155
 20
1.28614953147094
 30
0.0
 11
20.59586817925786
 21
2.361909836974626
 31
0.0
  0
LINE
  5
B6B5
330
B688
100
AcDbEntity
  8
0
  6
CONTINUOUS
100
AcDbLine
 10
21.8798685855739
 20
1.751428639738782
 30
0.0
 11
20.80407128472849
 21
2.827225940584183
 31
0.0
  0
LINE
  5
B6B6
330
B688
100
AcDbEntity
  8
0
  6
CONTINUOUS
100
AcDbLine
 10
22.08810868638624
 20
2.216707748006623
 30
0.0
 11
21.01227439019912
 21
3.292542044193739
 31
0.0
  0
LINE
  5
B6B7
330
B688
100
AcDbEntity
  8
0
  6
CONTINUOUS
100
AcDbLine
 10
22.60993564347543
 20
2.36839999999762
 30
0.0
 11
21.22047749566975
 21
3.757858147803296
 31
0.0
  0
LINE
  5
B6B8
330
B688
100
AcDbEntity
  8
0
  6
CONTINUOUS
100
AcDbLine
 10
23.28345485255561
 20
2.36839999999762
 30
0.0
 11
21.42868060114038
 21
4.223174251412853
 31
0.0
  0
LINE
  5
B6B9
330
B688
100
AcDbEntity
  8
0
  6
CONTINUOUS
100
AcDbLine
 10
26.29227406164219
 20
0.0330999999912356
 30
0.0
 11
25.80009199592872
 21
0.5252820657046957
 31
0.0
  0
LINE
  5
B6BA
330
B688
100
AcDbEntity
  8
0
  6
CONTINUOUS
100
AcDbLine
 10
23.9569740616358
 20
2.36839999999762
 30
0.0
 11
21.63688370661101
 21
4.688490355022409
 31
0.0
  0
LINE
  5
B6BB
330
B688
100
AcDbEntity
  8
0
  6
CONTINUOUS
100
AcDbLine
 10
26.96579327072237
 20
0.0330999999912356
 30
0.0
 11
25.2554132311971
 21
1.743480039516508
 31
0.0
  0
LINE
  5
B6BC
330
B688
100
AcDbEntity
  8
0
  6
CONTINUOUS
100
AcDbLine
 10
24.63049327071599
 20
2.36839999999762
 30
0.0
 11
23.32789327071731
 21
3.670999999996297
 31
0.0
  0
LINE
  5
B6BD
330
B688
100
AcDbEntity
  8
0
  6
CONTINUOUS
100
AcDbLine
 10
22.92098674744635
 20
4.077906523267254
 30
0.0
 11
21.84508681208164
 21
5.153806458631966
 31
0.0
  0
LINE
  5
B6BE
330
B688
100
AcDbEntity
  8
0
  6
CONTINUOUS
100
AcDbLine
 10
27.63931247980256
 20
0.0330999999912356
 30
0.0
 11
24.0014124797975
 21
3.670999999996297
 31
0.0
  0
LINE
  5
B6BF
330
B688
100
AcDbEntity
  8
0
  6
CONTINUOUS
100
AcDbLine
 10
23.129125600968
 20
4.5432868788258
 30
0.0
 11
22.05328991755227
 21
5.619122562241522
 31
0.0
  0
LINE
  5
B6C0
330
B688
100
AcDbEntity
  8
0
  6
CONTINUOUS
100
AcDbLine
 10
28.31283168888275
 20
0.0330999999912356
 30
0.0
 11
24.16488385994816
 21
4.181047828925828
 31
0.0
  0
LINE
  5
B6C1
330
B688
100
AcDbEntity
  8
0
  6
CONTINUOUS
100
AcDbLine
 10
23.33726445448964
 20
5.008667234384345
 30
0.0
 11
22.2614930230229
 21
6.084438665851079
 31
0.0
  0
LINE
  5
B6C2
330
B688
100
AcDbEntity
  8
0
  6
CONTINUOUS
100
AcDbLine
 10
28.92085740005492
 20
0.0985934978992438
 30
0.0
 11
27.63635089796295
 21
1.383099999991217
 31
0.0
  0
LINE
  5
B6C3
330
B688
100
AcDbEntity
  8
0
  6
CONTINUOUS
100
AcDbLine
 10
26.43704649509776
 20
2.582404402856405
 30
0.0
 11
23.61992702019732
 21
5.399523877756844
 31
0.0
  0
LINE
  5
B6C4
330
B688
100
AcDbEntity
  8
0
  6
CONTINUOUS
100
AcDbLine
 10
23.54540330801128
 20
5.47404758994289
 30
0.0
 11
22.46969612849353
 21
6.549754769460635
 31
0.0
  0
LINE
  5
B6C5
330
B688
100
AcDbEntity
  8
0
  6
CONTINUOUS
100
AcDbLine
 10
29.42225615078443
 20
0.2707139562499279
 30
0.0
 11
28.30987010704312
 21
1.383099999991234
 31
0.0
  0
LINE
  5
B6C6
330
B688
100
AcDbEntity
  8
0
  6
CONTINUOUS
100
AcDbLine
 10
25.89179548232307
 20
3.801174624711282
 30
0.0
 11
22.67789923396416
 21
7.015070873070191
 31
0.0
  0
LINE
  5
B6C7
330
B688
100
AcDbEntity
  8
0
  6
CONTINUOUS
100
AcDbLine
 10
29.83624534690007
 20
0.5302439692144705
 30
0.0
 11
28.85811781497101
 21
1.508371501143527
 31
0.0
  0
LINE
  5
B6C8
330
B688
100
AcDbEntity
  8
0
  6
CONTINUOUS
100
AcDbLine
 10
25.34654446954838
 20
5.01994484656616
 30
0.0
 11
22.88610233943479
 21
7.480386976679748
 31
0.0
  0
LINE
  5
B6C9
330
B688
100
AcDbEntity
  8
0
  6
CONTINUOUS
100
AcDbLine
 10
30.17865975401872
 20
0.8613487711760022
 30
0.0
 11
29.18888744090175
 21
1.851121084292977
 31
0.0
  0
LINE
  5
B6CA
330
B688
100
AcDbEntity
  8
0
  6
CONTINUOUS
100
AcDbLine
 10
24.80129345677369
 20
6.238715068421037
 30
0.0
 11
23.09430544490542
 21
7.945703080289305
 31
0.0
  0
LINE
  5
B6CB
330
B688
100
AcDbEntity
  8
0
  6
CONTINUOUS
100
AcDbLine
 10
30.45496647202376
 20
1.258561262251155
 30
0.0
 11
29.30199999996933
 21
2.411527734305588
 31
0.0
  0
LINE
  5
B6CC
330
B688
100
AcDbEntity
  8
0
  6
CONTINUOUS
100
AcDbLine
 10
24.256042443999
 20
7.457485290275915
 30
0.0
 11
23.30250855037605
 21
8.411019183898862
 31
0.0
  0
LINE
  5
B6CD
330
B688
100
AcDbEntity
  8
0
  6
CONTINUOUS
100
AcDbLine
 10
30.64868582078271
 20
1.738361122572387
 30
0.0
 11
29.30199999996933
 21
3.085046943385775
 31
0.0
  0
LINE
  5
B6CE
330
B688
100
AcDbEntity
  8
0
  6
CONTINUOUS
100
AcDbLine
 10
23.71079143122431
 20
8.676255512130794
 30
0.0
 11
23.51071165584668
 21
8.876335287508416
 31
0.0
  0
LINE
  5
B6CF
330
B688
100
AcDbEntity
  8
0
  6
CONTINUOUS
100
AcDbLine
 10
30.73802122914428
 20
2.322544923291007
 30
0.0
 11
29.30199999996933
 21
3.758566152465961
 31
0.0
  0
LINE
  5
B6D0
330
B688
100
AcDbEntity
  8
0
  6
CONTINUOUS
100
AcDbLine
 10
30.74199999996924
 20
2.992085361546236
 30
0.0
 11
29.30199999996933
 21
4.432085361546148
 31
0.0
  0
LINE
  5
B6D1
330
B688
100
AcDbEntity
  8
0
  6
CONTINUOUS
100
AcDbLine
 10
30.74199999996924
 20
3.665604570626419
 30
0.0
 11
29.30199999996933
 21
5.105604570626333
 31
0.0
  0
LINE
  5
B6D2
330
B688
100
AcDbEntity
  8
0
  6
CONTINUOUS
100
AcDbLine
 10
30.74199999996925
 20
4.339123779706602
 30
0.0
 11
29.30199999996933
 21
5.77912377970652
 31
0.0
  0
LINE
  5
B6D3
330
B688
100
AcDbEntity
  8
0
  6
CONTINUOUS
100
AcDbLine
 10
30.74199999996925
 20
5.012642988786785
 30
0.0
 11
29.30199999996933
 21
6.452642988786707
 31
0.0
  0
LINE
  5
B6D4
330
B688
100
AcDbEntity
  8
0
  6
CONTINUOUS
100
AcDbLine
 10
30.74199999996925
 20
5.68616219786697
 30
0.0
 11
29.30199999996933
 21
7.126162197866894
 31
0.0
  0
LINE
  5
B6D5
330
B688
100
AcDbEntity
  8
0
  6
CONTINUOUS
100
AcDbLine
 10
30.74199999996925
 20
6.359681406947153
 30
0.0
 11
29.30199999996933
 21
7.799681406947081
 31
0.0
  0
LINE
  5
B6D6
330
B688
100
AcDbEntity
  8
0
  6
CONTINUOUS
100
AcDbLine
 10
30.74199999996926
 20
7.033200616027337
 30
0.0
 11
29.30199999996933
 21
8.473200616027269
 31
0.0
  0
LINE
  5
B6D7
330
B688
100
AcDbEntity
  8
0
  6
CONTINUOUS
100
AcDbLine
 10
30.74199999996926
 20
7.706719825107518
 30
0.0
 11
29.68561982508552
 21
8.763099999991255
 31
0.0
  0
LINE
  5
B6D8
330
B688
100
AcDbEntity
  8
0
  6
CONTINUOUS
100
AcDbLine
 10
30.74199999996926
 20
8.380239034187703
 30
0.0
 11
30.35913903416571
 21
8.763099999991255
 31
0.0
  0
ENDBLK
  5
B77B
330
B688
100
AcDbEntity
  8
0
100
AcDbBlockEnd
  0
BLOCK
  5
B77C
330
B6D9
100
AcDbEntity
  8
0
100
AcDbBlockBegin
  2
*X77
 70
     1
 10
0.0
 20
0.0
 30
0.0
  3
*X77
  1

  0
LINE
  5
B6DA
330
B6D9
100
AcDbEntity
  8
0
  6
CONTINUOUS
100
AcDbLine
 10
31.64199999996833
 20
8.535058289913598
 30
0.0
 11
31.87004171004599
 21
8.763099999991255
 31
0.0
  0
LINE
  5
B6DB
330
B6D9
100
AcDbEntity
  8
0
  6
CONTINUOUS
100
AcDbLine
 10
31.64199999996833
 20
7.861539080833412
 30
0.0
 11
32.54356091912618
 21
8.763099999991255
 31
0.0
  0
LINE
  5
B6DC
330
B6D9
100
AcDbEntity
  8
0
  6
CONTINUOUS
100
AcDbLine
 10
31.64199999996833
 20
7.188019871753226
 30
0.0
 11
33.08199999996839
 21
8.628019871753281
 31
0.0
  0
LINE
  5
B6DD
330
B6D9
100
AcDbEntity
  8
0
  6
CONTINUOUS
100
AcDbLine
 10
31.64199999996833
 20
6.51450066267304
 30
0.0
 11
33.08199999996839
 21
7.954500662673095
 31
0.0
  0
LINE
  5
B6DE
330
B6D9
100
AcDbEntity
  8
0
  6
CONTINUOUS
100
AcDbLine
 10
31.64199999996833
 20
5.840981453592853
 30
0.0
 11
33.08199999996839
 21
7.280981453592908
 31
0.0
  0
LINE
  5
B6DF
330
B6D9
100
AcDbEntity
  8
0
  6
CONTINUOUS
100
AcDbLine
 10
31.64199999996833
 20
5.167462244512667
 30
0.0
 11
33.08199999996839
 21
6.607462244512721
 31
0.0
  0
LINE
  5
B6E0
330
B6D9
100
AcDbEntity
  8
0
  6
CONTINUOUS
100
AcDbLine
 10
31.64199999996833
 20
4.493943035432481
 30
0.0
 11
33.08199999996839
 21
5.933943035432535
 31
0.0
  0
LINE
  5
B6E1
330
B6D9
100
AcDbEntity
  8
0
  6
CONTINUOUS
100
AcDbLine
 10
31.64199999996833
 20
3.820423826352293
 30
0.0
 11
33.08199999996839
 21
5.260423826352348
 31
0.0
  0
LINE
  5
B6E2
330
B6D9
100
AcDbEntity
  8
0
  6
CONTINUOUS
100
AcDbLine
 10
31.64199999996833
 20
3.146904617272106
 30
0.0
 11
33.08199999996839
 21
4.586904617272161
 31
0.0
  0
LINE
  5
B6E3
330
B6D9
100
AcDbEntity
  8
0
  6
CONTINUOUS
100
AcDbLine
 10
36.23199999996837
 20
8.410423826352325
 30
0.0
 11
36.5846761736073
 21
8.763099999991255
 31
0.0
  0
LINE
  5
B6E4
330
B6D9
100
AcDbEntity
  8
0
  6
CONTINUOUS
100
AcDbLine
 10
36.23199999996837
 20
7.73690461727214
 30
0.0
 11
37.25819538268748
 21
8.763099999991255
 31
0.0
  0
LINE
  5
B6E5
330
B6D9
100
AcDbEntity
  8
0
  6
CONTINUOUS
100
AcDbLine
 10
31.64257403601376
 20
2.473959444237348
 30
0.0
 11
33.08199999996839
 21
3.913385408191974
 31
0.0
  0
LINE
  5
B6E6
330
B6D9
100
AcDbEntity
  8
0
  6
CONTINUOUS
100
AcDbLine
 10
36.23199999996837
 20
7.063385408191953
 30
0.0
 11
37.67199999996831
 21
8.503385408191894
 31
0.0
  0
LINE
  5
B6E7
330
B6D9
100
AcDbEntity
  8
0
  6
CONTINUOUS
100
AcDbLine
 10
31.72013636841932
 20
1.87800256756272
 30
0.0
 11
33.08199999996839
 21
3.239866199111788
 31
0.0
  0
LINE
  5
B6E8
330
B6D9
100
AcDbEntity
  8
0
  6
CONTINUOUS
100
AcDbLine
 10
36.23199999996837
 20
6.389866199111767
 30
0.0
 11
37.67199999996831
 21
7.829866199111708
 31
0.0
  0
LINE
  5
B6E9
330
B6D9
100
AcDbEntity
  8
0
  6
CONTINUOUS
100
AcDbLine
 10
31.89042734314753
 20
1.374774333210744
 30
0.0
 11
33.08199999996839
 21
2.566346990031601
 31
0.0
  0
LINE
  5
B6EA
330
B6D9
100
AcDbEntity
  8
0
  6
CONTINUOUS
100
AcDbLine
 10
36.23199999996837
 20
5.71634699003158
 30
0.0
 11
37.67199999996831
 21
7.156346990031521
 31
0.0
  0
LINE
  5
B6EB
330
B6D9
100
AcDbEntity
  8
0
  6
CONTINUOUS
100
AcDbLine
 10
32.14210568064475
 20
0.952933461627778
 30
0.0
 11
33.18745552475986
 21
1.998283305742888
 31
0.0
  0
LINE
  5
B6EC
330
B6D9
100
AcDbEntity
  8
0
  6
CONTINUOUS
100
AcDbLine
 10
36.23199999996837
 20
5.042827780951393
 30
0.0
 11
37.67199999996831
 21
6.482827780951334
 31
0.0
  0
LINE
  5
B6ED
330
B6D9
100
AcDbEntity
  8
0
  6
CONTINUOUS
100
AcDbLine
 10
32.45820639400955
 20
0.5955149659123915
 30
0.0
 11
33.47242681921943
 21
1.60973539112227
 31
0.0
  0
LINE
  5
B6EE
330
B6D9
100
AcDbEntity
  8
0
  6
CONTINUOUS
100
AcDbLine
 10
36.23199999996837
 20
4.369308571871207
 30
0.0
 11
37.67199999996831
 21
5.809308571871147
 31
0.0
  0
LINE
  5
B6EF
330
B6D9
100
AcDbEntity
  8
0
  6
CONTINUOUS
100
AcDbLine
 10
32.83432456621412
 20
0.2981139290367771
 30
0.0
 11
33.89722476612215
 21
1.361014128944803
 31
0.0
  0
LINE
  5
B6F0
330
B6D9
100
AcDbEntity
  8
0
  6
CONTINUOUS
100
AcDbLine
 10
36.23199999996837
 20
3.69578936279102
 30
0.0
 11
37.67199999996831
 21
5.135789362790962
 31
0.0
  0
LINE
  5
B6F1
330
B6D9
100
AcDbEntity
  8
0
  6
CONTINUOUS
100
AcDbLine
 10
33.2711633111245
 20
0.0614334648669672
 30
0.0
 11
34.43247338014423
 21
1.222743533886696
 31
0.0
  0
LINE
  5
B6F2
330
B6D9
100
AcDbEntity
  8
0
  6
CONTINUOUS
100
AcDbLine
 10
36.23199999996837
 20
3.022270153710834
 30
0.0
 11
37.67199999996831
 21
4.462270153710775
 31
0.0
  0
LINE
  5
B6F3
330
B6D9
100
AcDbEntity
  8
0
  6
CONTINUOUS
100
AcDbLine
 10
33.76515245874577
 20
-0.1180965965919523
 30
0.0
 11
35.1587445516215
 21
1.27549549628378
 31
0.0
  0
LINE
  5
B6F4
330
B6D9
100
AcDbEntity
  8
0
  6
CONTINUOUS
100
AcDbLine
 10
36.21639478609585
 20
2.333145730758136
 30
0.0
 11
37.67199999996831
 21
3.788750944630588
 31
0.0
  0
LINE
  5
B6F5
330
B6D9
100
AcDbEntity
  8
0
  6
CONTINUOUS
100
AcDbLine
 10
34.34060583368432
 20
-0.2161624307335863
 30
0.0
 11
37.67199999996831
 21
3.115231735550401
 31
0.0
  0
LINE
  5
B6F6
330
B6D9
100
AcDbEntity
  8
0
  6
CONTINUOUS
100
AcDbLine
 10
35.01698193613905
 20
-0.2133055373590427
 30
0.0
 11
37.66876712070525
 21
2.438479647207154
 31
0.0
  0
LINE
  5
B6F7
330
B6D9
100
AcDbEntity
  8
0
  6
CONTINUOUS
100
AcDbLine
 10
35.90743367693304
 20
0.0036269943547609
 30
0.0
 11
37.51723902192366
 21
1.613432339345381
 31
0.0
  0
LINE
  5
B6F8
330
B6D9
100
AcDbEntity
  8
0
  6
CONTINUOUS
100
AcDbLine
 10
32.55309425579761
 20
0.5074718966376706
 30
0.0
 11
32.27784730925847
 21
0.7827188431768102
 31
0.0
  0
LINE
  5
B6F9
330
B6D9
100
AcDbEntity
  8
0
  6
CONTINUOUS
100
AcDbLine
 10
33.87496468909684
 20
-0.1408793275813673
 30
0.0
 11
31.67993083278052
 21
2.054154528734943
 31
0.0
  0
LINE
  5
B6FA
330
B6D9
100
AcDbEntity
  8
0
  6
CONTINUOUS
100
AcDbLine
 10
34.64362813207632
 20
-0.2360235614806649
 30
0.0
 11
31.64199999996833
 21
2.765604570627322
 31
0.0
  0
LINE
  5
B6FB
330
B6D9
100
AcDbEntity
  8
0
  6
CONTINUOUS
100
AcDbLine
 10
35.25801106796118
 20
-0.1768872882853429
 30
0.0
 11
31.64199999996833
 21
3.439123779707508
 31
0.0
  0
LINE
  5
B6FC
330
B6D9
100
AcDbEntity
  8
0
  6
CONTINUOUS
100
AcDbLine
 10
35.79065650332146
 20
-0.0360135145654361
 30
0.0
 11
34.54143210838231
 21
1.213210880373721
 31
0.0
  0
LINE
  5
B6FD
330
B6D9
100
AcDbEntity
  8
0
  6
CONTINUOUS
100
AcDbLine
 10
33.08199999996839
 20
2.67264298878764
 30
0.0
 11
31.64199999996833
 21
4.112642988787695
 31
0.0
  0
LINE
  5
B6FE
330
B6D9
100
AcDbEntity
  8
0
  6
CONTINUOUS
100
AcDbLine
 10
36.25975597779143
 20
0.1684062200447833
 30
0.0
 11
35.15395110240023
 21
1.274211095435983
 31
0.0
  0
LINE
  5
B6FF
330
B6D9
100
AcDbEntity
  8
0
  6
CONTINUOUS
100
AcDbLine
 10
33.08199999996839
 20
3.346162197867826
 30
0.0
 11
31.64199999996833
 21
4.786162197867881
 31
0.0
  0
LINE
  5
B700
330
B6D9
100
AcDbEntity
  8
0
  6
CONTINUOUS
100
AcDbLine
 10
36.67226329638774
 20
0.4294181105286579
 30
0.0
 11
35.63766478748767
 21
1.464016619428737
 31
0.0
  0
LINE
  5
B701
330
B6D9
100
AcDbEntity
  8
0
  6
CONTINUOUS
100
AcDbLine
 10
33.08199999996839
 20
4.019681406948012
 30
0.0
 11
31.64199999996833
 21
5.459681406948068
 31
0.0
  0
LINE
  5
B702
330
B6D9
100
AcDbEntity
  8
0
  6
CONTINUOUS
100
AcDbLine
 10
37.01677749710036
 20
0.7584231188962329
 30
0.0
 11
35.99563422741351
 21
1.779566388583076
 31
0.0
  0
LINE
  5
B703
330
B6D9
100
AcDbEntity
  8
0
  6
CONTINUOUS
100
AcDbLine
 10
33.08199999996839
 20
4.693200616028199
 30
0.0
 11
31.64199999996833
 21
6.133200616028255
 31
0.0
  0
LINE
  5
B704
330
B6D9
100
AcDbEntity
  8
0
  6
CONTINUOUS
100
AcDbLine
 10
37.29859977568887
 20
1.1501200493879
 30
0.0
 11
36.20680593341555
 21
2.241913891661226
 31
0.0
  0
LINE
  5
B705
330
B6D9
100
AcDbEntity
  8
0
  6
CONTINUOUS
100
AcDbLine
 10
33.08199999996839
 20
5.366719825108386
 30
0.0
 11
31.64199999996833
 21
6.80671982510844
 31
0.0
  0
LINE
  5
B706
330
B6D9
100
AcDbEntity
  8
0
  6
CONTINUOUS
100
AcDbLine
 10
37.5148623517228
 20
1.607376682434161
 30
0.0
 11
36.23199999996837
 21
2.890239034188594
 31
0.0
  0
LINE
  5
B707
330
B6D9
100
AcDbEntity
  8
0
  6
CONTINUOUS
100
AcDbLine
 10
33.08199999996839
 20
6.040239034188573
 30
0.0
 11
31.64199999996833
 21
7.480239034188627
 31
0.0
  0
LINE
  5
B708
330
B6D9
100
AcDbEntity
  8
0
  6
CONTINUOUS
100
AcDbLine
 10
37.64705163358367
 20
2.148706609653477
 30
0.0
 11
36.23199999996837
 21
3.56375824326878
 31
0.0
  0
LINE
  5
B709
330
B6D9
100
AcDbEntity
  8
0
  6
CONTINUOUS
100
AcDbLine
 10
33.08199999996839
 20
6.713758243268758
 30
0.0
 11
31.64199999996833
 21
8.153758243268815
 31
0.0
  0
LINE
  5
B70A
330
B6D9
100
AcDbEntity
  8
0
  6
CONTINUOUS
100
AcDbLine
 10
37.67199999996831
 20
2.797277452349026
 30
0.0
 11
36.23199999996837
 21
4.237277452348967
 31
0.0
  0
LINE
  5
B70B
330
B6D9
100
AcDbEntity
  8
0
  6
CONTINUOUS
100
AcDbLine
 10
37.67199999996831
 20
3.470796661429213
 30
0.0
 11
36.23199999996837
 21
4.910796661429154
 31
0.0
  0
LINE
  5
B70C
330
B6D9
100
AcDbEntity
  8
0
  6
CONTINUOUS
100
AcDbLine
 10
37.67199999996831
 20
4.144315870509399
 30
0.0
 11
36.23199999996837
 21
5.58431587050934
 31
0.0
  0
LINE
  5
B70D
330
B6D9
100
AcDbEntity
  8
0
  6
CONTINUOUS
100
AcDbLine
 10
33.08199999996839
 20
7.387277452348945
 30
0.0
 11
31.70617745232608
 21
8.763099999991255
 31
0.0
  0
LINE
  5
B70E
330
B6D9
100
AcDbEntity
  8
0
  6
CONTINUOUS
100
AcDbLine
 10
33.08199999996839
 20
8.060796661429132
 30
0.0
 11
32.37969666140626
 21
8.763099999991255
 31
0.0
  0
LINE
  5
B70F
330
B6D9
100
AcDbEntity
  8
0
  6
CONTINUOUS
100
AcDbLine
 10
33.08199999996839
 20
8.734315870509318
 30
0.0
 11
33.05321587048645
 21
8.763099999991255
 31
0.0
  0
LINE
  5
B710
330
B6D9
100
AcDbEntity
  8
0
  6
CONTINUOUS
100
AcDbLine
 10
37.67199999996831
 20
4.817835079589585
 30
0.0
 11
36.23199999996837
 21
6.257835079589526
 31
0.0
  0
LINE
  5
B711
330
B6D9
100
AcDbEntity
  8
0
  6
CONTINUOUS
100
AcDbLine
 10
37.67199999996831
 20
5.491354288669771
 30
0.0
 11
36.23199999996837
 21
6.931354288669713
 31
0.0
  0
LINE
  5
B712
330
B6D9
100
AcDbEntity
  8
0
  6
CONTINUOUS
100
AcDbLine
 10
37.67199999996831
 20
6.164873497749958
 30
0.0
 11
36.23199999996837
 21
7.6048734977499
 31
0.0
  0
LINE
  5
B713
330
B6D9
100
AcDbEntity
  8
0
  6
CONTINUOUS
100
AcDbLine
 10
37.67199999996831
 20
6.838392706830144
 30
0.0
 11
36.23199999996837
 21
8.278392706830086
 31
0.0
  0
LINE
  5
B714
330
B6D9
100
AcDbEntity
  8
0
  6
CONTINUOUS
100
AcDbLine
 10
37.67199999996831
 20
7.511911915910332
 30
0.0
 11
36.42081191588738
 21
8.763099999991255
 31
0.0
  0
LINE
  5
B715
330
B6D9
100
AcDbEntity
  8
0
  6
CONTINUOUS
100
AcDbLine
 10
37.67199999996831
 20
8.185431124990519
 30
0.0
 11
37.09433112496757
 21
8.763099999991255
 31
0.0
  0
ENDBLK
  5
B77D
330
B6D9
100
AcDbEntity
  8
0
100
AcDbBlockEnd
  0
BLOCK
  5
B77E
330
B716
100
AcDbEntity
  8
0
100
AcDbBlockBegin
  2
*X78
 70
     1
 10
0.0
 20
0.0
 30
0.0
  3
*X78
  1

  0
LINE
  5
B717
330
B716
100
AcDbEntity
  8
0
  6
CONTINUOUS
100
AcDbLine
 10
38.60499999996136
 20
8.762866199104765
 30
0.0
 11
38.71672554182345
 21
8.874591740966855
 31
0.0
  0
LINE
  5
B718
330
B716
100
AcDbEntity
  8
0
  6
CONTINUOUS
100
AcDbLine
 10
38.60499999996136
 20
8.089346990024577
 30
0.0
 11
39.03418785440363
 21
8.518534844466847
 31
0.0
  0
LINE
  5
B719
330
B716
100
AcDbEntity
  8
0
  6
CONTINUOUS
100
AcDbLine
 10
38.60499999996136
 20
7.41582778094439
 30
0.0
 11
39.35165016698382
 21
8.16247794796684
 31
0.0
  0
LINE
  5
B71A
330
B716
100
AcDbEntity
  8
0
  6
CONTINUOUS
100
AcDbLine
 10
38.60499999996136
 20
6.742308571864204
 30
0.0
 11
39.66911247956399
 21
7.806421051466834
 31
0.0
  0
LINE
  5
B71B
330
B716
100
AcDbEntity
  8
0
  6
CONTINUOUS
100
AcDbLine
 10
38.60499999996136
 20
6.068789362784018
 30
0.0
 11
39.98657479214418
 21
7.450364154966827
 31
0.0
  0
LINE
  5
B71C
330
B716
100
AcDbEntity
  8
0
  6
CONTINUOUS
100
AcDbLine
 10
38.60499999996136
 20
5.395270153703832
 30
0.0
 11
40.30403710472435
 21
7.09430725846682
 31
0.0
  0
LINE
  5
B71D
330
B716
100
AcDbEntity
  8
0
  6
CONTINUOUS
100
AcDbLine
 10
38.60499999996136
 20
4.721750944623645
 30
0.0
 11
40.62149941730453
 21
6.738250361966813
 31
0.0
  0
LINE
  5
B71E
330
B716
100
AcDbEntity
  8
0
  6
CONTINUOUS
100
AcDbLine
 10
38.60499999996136
 20
4.048231735543458
 30
0.0
 11
40.93896172988471
 21
6.382193465466806
 31
0.0
  0
LINE
  5
B71F
330
B716
100
AcDbEntity
  8
0
  6
CONTINUOUS
100
AcDbLine
 10
38.60499999996136
 20
3.374712526463272
 30
0.0
 11
40.02599999995994
 21
4.795712526461843
 31
0.0
  0
LINE
  5
B720
330
B716
100
AcDbEntity
  8
0
  6
CONTINUOUS
100
AcDbLine
 10
38.60499999996136
 20
2.701193317383085
 30
0.0
 11
40.02599999995994
 21
4.122193317381657
 31
0.0
  0
LINE
  5
B721
330
B716
100
AcDbEntity
  8
0
  6
CONTINUOUS
100
AcDbLine
 10
40.28339754687704
 20
5.053110073378947
 30
0.0
 11
41.25642404246489
 21
6.026136568966799
 31
0.0
  0
LINE
  5
B722
330
B716
100
AcDbEntity
  8
0
  6
CONTINUOUS
100
AcDbLine
 10
40.60085985945722
 20
4.697053176878939
 30
0.0
 11
41.57388635504507
 21
5.670079672466793
 31
0.0
  0
LINE
  5
B723
330
B716
100
AcDbEntity
  8
0
  6
CONTINUOUS
100
AcDbLine
 10
43.57899999995641
 20
8.348712526458318
 30
0.0
 11
43.99338747348935
 21
8.763099999991255
 31
0.0
  0
LINE
  5
B724
330
B716
100
AcDbEntity
  8
0
  6
CONTINUOUS
100
AcDbLine
 10
43.57899999995641
 20
7.675193317378131
 30
0.0
 11
44.66690668256953
 21
8.763099999991255
 31
0.0
  0
LINE
  5
B725
330
B716
100
AcDbEntity
  8
0
  6
CONTINUOUS
100
AcDbLine
 10
38.60499999996136
 20
2.027674108302898
 30
0.0
 11
40.02599999995994
 21
3.44867410830147
 31
0.0
  0
LINE
  5
B726
330
B716
100
AcDbEntity
  8
0
  6
CONTINUOUS
100
AcDbLine
 10
38.60499999996136
 20
1.354154899222712
 30
0.0
 11
40.02599999995994
 21
2.775154899221284
 31
0.0
  0
LINE
  5
B727
330
B716
100
AcDbEntity
  8
0
  6
CONTINUOUS
100
AcDbLine
 10
38.60499999996136
 20
0.6806356901425255
 30
0.0
 11
40.02599999995994
 21
2.101635690141098
 31
0.0
  0
LINE
  5
B728
330
B716
100
AcDbEntity
  8
0
  6
CONTINUOUS
100
AcDbLine
 10
38.60499999996136
 20
0.0071164810623383
 30
0.0
 11
40.02599999995994
 21
1.428116481060911
 31
0.0
  0
LINE
  5
B729
330
B716
100
AcDbEntity
  8
0
  6
CONTINUOUS
100
AcDbLine
 10
40.9183221720374
 20
4.340996280378933
 30
0.0
 11
41.89134866762525
 21
5.314022775966786
 31
0.0
  0
LINE
  5
B72A
330
B716
100
AcDbEntity
  8
0
  6
CONTINUOUS
100
AcDbLine
 10
41.23578448461758
 20
3.984939383878926
 30
0.0
 11
42.20881098020543
 21
4.957965879466778
 31
0.0
  0
LINE
  5
B72B
330
B716
100
AcDbEntity
  8
0
  6
CONTINUOUS
100
AcDbLine
 10
41.55324679719776
 20
3.628882487378919
 30
0.0
 11
42.52627329278561
 21
4.601908982966772
 31
0.0
  0
LINE
  5
B72C
330
B716
100
AcDbEntity
  8
0
  6
CONTINUOUS
100
AcDbLine
 10
41.87070910977793
 20
3.272825590878912
 30
0.0
 11
42.84373560536579
 21
4.245852086466765
 31
0.0
  0
LINE
  5
B72D
330
B716
100
AcDbEntity
  8
0
  6
CONTINUOUS
100
AcDbLine
 10
43.57899999995641
 20
7.001674108297943
 30
0.0
 11
44.99999999995498
 21
8.422674108296516
 31
0.0
  0
LINE
  5
B72E
330
B716
100
AcDbEntity
  8
0
  6
CONTINUOUS
100
AcDbLine
 10
43.57899999995641
 20
6.328154899217758
 30
0.0
 11
44.99999999995498
 21
7.749154899216329
 31
0.0
  0
LINE
  5
B72F
330
B716
100
AcDbEntity
  8
0
  6
CONTINUOUS
100
AcDbLine
 10
43.57899999995641
 20
5.654635690137571
 30
0.0
 11
44.99999999995498
 21
7.075635690136142
 31
0.0
  0
LINE
  5
B730
330
B716
100
AcDbEntity
  8
0
  6
CONTINUOUS
100
AcDbLine
 10
43.57899999995641
 20
4.981116481057384
 30
0.0
 11
44.99999999995498
 21
6.402116481055955
 31
0.0
  0
LINE
  5
B731
330
B716
100
AcDbEntity
  8
0
  6
CONTINUOUS
100
AcDbLine
 10
39.27140272797921
 20
-0.0000000000000009
 30
0.0
 11
40.02599999995994
 21
0.7545972719807246
 31
0.0
  0
LINE
  5
B732
330
B716
100
AcDbEntity
  8
0
  6
CONTINUOUS
100
AcDbLine
 10
39.9449219370594
 20
-0.0000000000000009
 30
0.0
 11
40.02599999995994
 21
0.0810780629005379
 31
0.0
  0
LINE
  5
B733
330
B716
100
AcDbEntity
  8
0
  6
CONTINUOUS
100
AcDbLine
 10
42.18817142235812
 20
2.916768694378905
 30
0.0
 11
43.16119791794597
 21
3.889795189966758
 31
0.0
  0
LINE
  5
B734
330
B716
100
AcDbEntity
  8
0
  6
CONTINUOUS
100
AcDbLine
 10
42.50563373493829
 20
2.560711797878898
 30
0.0
 11
43.47866023052615
 21
3.533738293466751
 31
0.0
  0
LINE
  5
B735
330
B716
100
AcDbEntity
  8
0
  6
CONTINUOUS
100
AcDbLine
 10
43.57899999995641
 20
4.307597271977198
 30
0.0
 11
44.99999999995498
 21
5.728597271975769
 31
0.0
  0
LINE
  5
B736
330
B716
100
AcDbEntity
  8
0
  6
CONTINUOUS
100
AcDbLine
 10
43.57899999995641
 20
3.634078062897011
 30
0.0
 11
44.99999999995498
 21
5.055078062895582
 31
0.0
  0
LINE
  5
B737
330
B716
100
AcDbEntity
  8
0
  6
CONTINUOUS
100
AcDbLine
 10
42.82309604751848
 20
2.204654901378891
 30
0.0
 11
44.99999999995498
 21
4.381558853815395
 31
0.0
  0
LINE
  5
B738
330
B716
100
AcDbEntity
  8
0
  6
CONTINUOUS
100
AcDbLine
 10
43.14055836009865
 20
1.848598004878885
 30
0.0
 11
44.99999999995498
 21
3.70803964473521
 31
0.0
  0
LINE
  5
B739
330
B716
100
AcDbEntity
  8
0
  6
CONTINUOUS
100
AcDbLine
 10
43.45802067267883
 20
1.492541108378878
 30
0.0
 11
44.99999999995498
 21
3.034520435655023
 31
0.0
  0
LINE
  5
B73A
330
B716
100
AcDbEntity
  8
0
  6
CONTINUOUS
100
AcDbLine
 10
43.77548298525902
 20
1.136484211878871
 30
0.0
 11
44.99999999995498
 21
2.361001226574837
 31
0.0
  0
LINE
  5
B73B
330
B716
100
AcDbEntity
  8
0
  6
CONTINUOUS
100
AcDbLine
 10
44.09294529783919
 20
0.7804273153788639
 30
0.0
 11
44.99999999995498
 21
1.687482017494649
 31
0.0
  0
LINE
  5
B73C
330
B716
100
AcDbEntity
  8
0
  6
CONTINUOUS
100
AcDbLine
 10
44.41040761041938
 20
0.4243704188788566
 30
0.0
 11
44.99999999995498
 21
1.013962808414463
 31
0.0
  0
LINE
  5
B73D
330
B716
100
AcDbEntity
  8
0
  6
CONTINUOUS
100
AcDbLine
 10
44.72786992299955
 20
0.0683135223788494
 30
0.0
 11
44.99999999995498
 21
0.340443599334276
 31
0.0
  0
LINE
  5
B73E
330
B716
100
AcDbEntity
  8
0
  6
CONTINUOUS
100
AcDbLine
 10
39.12223903415696
 20
-0.0000000000000009
 30
0.0
 11
38.60499999996136
 21
0.5172390341955961
 31
0.0
  0
LINE
  5
B73F
330
B716
100
AcDbEntity
  8
0
  6
CONTINUOUS
100
AcDbLine
 10
39.79575824323715
 20
-0.0000000000000009
 30
0.0
 11
38.60499999996136
 21
1.190758243275783
 31
0.0
  0
LINE
  5
B740
330
B716
100
AcDbEntity
  8
0
  6
CONTINUOUS
100
AcDbLine
 10
40.02599999995994
 20
0.443277452357397
 30
0.0
 11
38.60499999996136
 21
1.864277452355969
 31
0.0
  0
LINE
  5
B741
330
B716
100
AcDbEntity
  8
0
  6
CONTINUOUS
100
AcDbLine
 10
40.02599999995994
 20
1.116796661437583
 30
0.0
 11
38.60499999996136
 21
2.537796661436155
 31
0.0
  0
LINE
  5
B742
330
B716
100
AcDbEntity
  8
0
  6
CONTINUOUS
100
AcDbLine
 10
40.02599999995994
 20
1.79031587051777
 30
0.0
 11
38.60499999996136
 21
3.211315870516341
 31
0.0
  0
LINE
  5
B743
330
B716
100
AcDbEntity
  8
0
  6
CONTINUOUS
100
AcDbLine
 10
40.02599999995994
 20
2.463835079597956
 30
0.0
 11
38.60499999996136
 21
3.884835079596527
 31
0.0
  0
LINE
  5
B744
330
B716
100
AcDbEntity
  8
0
  6
CONTINUOUS
100
AcDbLine
 10
40.02599999995994
 20
3.137354288678143
 30
0.0
 11
38.60499999996136
 21
4.558354288676714
 31
0.0
  0
LINE
  5
B745
330
B716
100
AcDbEntity
  8
0
  6
CONTINUOUS
100
AcDbLine
 10
40.02599999995994
 20
3.810873497758329
 30
0.0
 11
38.60499999996136
 21
5.2318734977569
 31
0.0
  0
LINE
  5
B746
330
B716
100
AcDbEntity
  8
0
  6
CONTINUOUS
100
AcDbLine
 10
40.02599999995994
 20
4.484392706838515
 30
0.0
 11
38.60499999996136
 21
5.905392706837086
 31
0.0
  0
LINE
  5
B747
330
B716
100
AcDbEntity
  8
0
  6
CONTINUOUS
100
AcDbLine
 10
44.99999999995498
 20
0.183911915923658
 30
0.0
 11
41.53858364506288
 21
3.64532827081576
 31
0.0
  0
LINE
  5
B748
330
B716
100
AcDbEntity
  8
0
  6
CONTINUOUS
100
AcDbLine
 10
40.02599999995994
 20
5.157911915918703
 30
0.0
 11
38.60499999996136
 21
6.578911915917274
 31
0.0
  0
LINE
  5
B749
330
B716
100
AcDbEntity
  8
0
  6
CONTINUOUS
100
AcDbLine
 10
44.99999999995498
 20
0.8574311250038447
 30
0.0
 11
38.60499999996136
 21
7.25243112499746
 31
0.0
  0
LINE
  5
B74A
330
B716
100
AcDbEntity
  8
0
  6
CONTINUOUS
100
AcDbLine
 10
44.99999999995498
 20
1.530950334084031
 30
0.0
 11
38.60499999996136
 21
7.925950334077647
 31
0.0
  0
LINE
  5
B74B
330
B716
100
AcDbEntity
  8
0
  6
CONTINUOUS
100
AcDbLine
 10
44.99999999995498
 20
2.204469543164218
 30
0.0
 11
43.57899999995641
 21
3.625469543162789
 31
0.0
  0
LINE
  5
B74C
330
B716
100
AcDbEntity
  8
0
  6
CONTINUOUS
100
AcDbLine
 10
41.89876730984767
 20
5.305702233271528
 30
0.0
 11
38.60499999996136
 21
8.599469543157834
 31
0.0
  0
LINE
  5
B74D
330
B716
100
AcDbEntity
  8
0
  6
CONTINUOUS
100
AcDbLine
 10
44.99999999995498
 20
2.877988752244405
 30
0.0
 11
43.57899999995641
 21
4.298988752242975
 31
0.0
  0
LINE
  5
B74E
330
B716
100
AcDbEntity
  8
0
  6
CONTINUOUS
100
AcDbLine
 10
44.99999999995498
 20
3.551507961324591
 30
0.0
 11
43.57899999995641
 21
4.972507961323163
 31
0.0
  0
LINE
  5
B74F
330
B716
100
AcDbEntity
  8
0
  6
CONTINUOUS
100
AcDbLine
 10
44.99999999995498
 20
4.225027170404777
 30
0.0
 11
43.57899999995641
 21
5.646027170403348
 31
0.0
  0
LINE
  5
B750
330
B716
100
AcDbEntity
  8
0
  6
CONTINUOUS
100
AcDbLine
 10
44.99999999995498
 20
4.898546379484964
 30
0.0
 11
43.57899999995641
 21
6.319546379483535
 31
0.0
  0
LINE
  5
B751
330
B716
100
AcDbEntity
  8
0
  6
CONTINUOUS
100
AcDbLine
 10
44.99999999995498
 20
5.572065588565151
 30
0.0
 11
43.57899999995641
 21
6.993065588563722
 31
0.0
  0
LINE
  5
B752
330
B716
100
AcDbEntity
  8
0
  6
CONTINUOUS
100
AcDbLine
 10
44.99999999995498
 20
6.245584797645336
 30
0.0
 11
43.57899999995641
 21
7.666584797643908
 31
0.0
  0
LINE
  5
B753
330
B716
100
AcDbEntity
  8
0
  6
CONTINUOUS
100
AcDbLine
 10
44.99999999995498
 20
6.919104006725522
 30
0.0
 11
43.57899999995641
 21
8.340104006724093
 31
0.0
  0
LINE
  5
B754
330
B716
100
AcDbEntity
  8
0
  6
CONTINUOUS
100
AcDbLine
 10
44.99999999995498
 20
7.592623215805709
 30
0.0
 11
43.82952321576943
 21
8.763099999991255
 31
0.0
  0
LINE
  5
B755
330
B716
100
AcDbEntity
  8
0
  6
CONTINUOUS
100
AcDbLine
 10
44.99999999995498
 20
8.266142424885896
 30
0.0
 11
44.50304242484962
 21
8.763099999991255
 31
0.0
  0
ENDBLK
  5
B77F
330
B716
100
AcDbEntity
  8
0
100
AcDbBlockEnd
  0
BLOCK
  5
B780
330
B756
100
AcDbEntity
  8
0
100
AcDbBlockBegin
  2
*X79
 70
     1
 10
0.0
 20
0.0
 30
0.0
  3
*X79
  1

  0
LINE
  5
B757
330
B756
100
AcDbEntity
  8
0
  6
CONTINUOUS
100
AcDbLine
 10
0.0
 20
8.548461116714023
 30
0.0
 11
0.2146388832772324
 21
8.763099999991255
 31
0.0
  0
LINE
  5
B758
330
B756
100
AcDbEntity
  8
0
  6
CONTINUOUS
100
AcDbLine
 10
-0.0000000000000002
 20
7.874941907633837
 30
0.0
 11
0.8881580923574184
 21
8.763099999991255
 31
0.0
  0
LINE
  5
B759
330
B756
100
AcDbEntity
  8
0
  6
CONTINUOUS
100
AcDbLine
 10
0.0
 20
7.20142269855365
 30
0.0
 11
1.420999999998572
 21
8.622422698552223
 31
0.0
  0
LINE
  5
B75A
330
B756
100
AcDbEntity
  8
0
  6
CONTINUOUS
100
AcDbLine
 10
-0.0000000000000001
 20
6.527903489473465
 30
0.0
 11
1.420999999998571
 21
7.948903489472036
 31
0.0
  0
LINE
  5
B75B
330
B756
100
AcDbEntity
  8
0
  6
CONTINUOUS
100
AcDbLine
 10
-0.0000000000000002
 20
5.854384280393278
 30
0.0
 11
1.420999999998571
 21
7.275384280391849
 31
0.0
  0
LINE
  5
B75C
330
B756
100
AcDbEntity
  8
0
  6
CONTINUOUS
100
AcDbLine
 10
-0.0000000000000002
 20
5.180865071313091
 30
0.0
 11
1.420999999998571
 21
6.601865071311663
 31
0.0
  0
LINE
  5
B75D
330
B756
100
AcDbEntity
  8
0
  6
CONTINUOUS
100
AcDbLine
 10
0.0
 20
4.507345862232905
 30
0.0
 11
1.420999999998571
 21
5.928345862231477
 31
0.0
  0
LINE
  5
B75E
330
B756
100
AcDbEntity
  8
0
  6
CONTINUOUS
100
AcDbLine
 10
-0.0000000000000003
 20
3.833826653152718
 30
0.0
 11
1.420999999998571
 21
5.25482665315129
 31
0.0
  0
LINE
  5
B75F
330
B756
100
AcDbEntity
  8
0
  6
CONTINUOUS
100
AcDbLine
 10
-0.0000000000000002
 20
3.160307444072532
 30
0.0
 11
1.420999999998571
 21
4.581307444071103
 31
0.0
  0
LINE
  5
B760
330
B756
100
AcDbEntity
  8
0
  6
CONTINUOUS
100
AcDbLine
 10
-0.0000000000000001
 20
2.486788234992345
 30
0.0
 11
1.420999999998571
 21
3.907788234990917
 31
0.0
  0
LINE
  5
B761
330
B756
100
AcDbEntity
  8
0
  6
CONTINUOUS
100
AcDbLine
 10
-0.0000000000000006
 20
1.813269025912159
 30
0.0
 11
1.420999999998571
 21
3.234269025910731
 31
0.0
  0
LINE
  5
B762
330
B756
100
AcDbEntity
  8
0
  6
CONTINUOUS
100
AcDbLine
 10
0.0
 20
1.139749816831973
 30
0.0
 11
1.420999999998571
 21
2.560749816830544
 31
0.0
  0
LINE
  5
B763
330
B756
100
AcDbEntity
  8
0
  6
CONTINUOUS
100
AcDbLine
 10
0.0000000000000002
 20
0.466230607751787
 30
0.0
 11
1.420999999998571
 21
1.887230607750358
 31
0.0
  0
LINE
  5
B764
330
B756
100
AcDbEntity
  8
0
  6
CONTINUOUS
100
AcDbLine
 10
0.2072886013284003
 20
-0.0000000000000009
 30
0.0
 11
1.420999999998571
 21
1.213711398670171
 31
0.0
  0
LINE
  5
B765
330
B756
100
AcDbEntity
  8
0
  6
CONTINUOUS
100
AcDbLine
 10
0.8808078104085864
 20
-0.0000000000000009
 30
0.0
 11
1.420999999998571
 21
0.5401921895899839
 31
0.0
  0
LINE
  5
B766
330
B756
100
AcDbEntity
  8
0
  6
CONTINUOUS
100
AcDbLine
 10
0.0581249075061505
 20
-0.0000000000000009
 30
0.0
 11
-0.0000000000000002
 21
0.0581249075061496
 31
0.0
  0
LINE
  5
B767
330
B756
100
AcDbEntity
  8
0
  6
CONTINUOUS
100
AcDbLine
 10
0.7316441165863372
 20
-0.0000000000000009
 30
0.0
 11
-0.0000000000000002
 21
0.7316441165863363
 31
0.0
  0
LINE
  5
B768
330
B756
100
AcDbEntity
  8
0
  6
CONTINUOUS
100
AcDbLine
 10
1.405163325666523
 20
-0.0000000000000009
 30
0.0
 11
-0.0000000000000002
 21
1.405163325666523
 31
0.0
  0
LINE
  5
B769
330
B756
100
AcDbEntity
  8
0
  6
CONTINUOUS
100
AcDbLine
 10
1.420999999998572
 20
0.6576825347481381
 30
0.0
 11
-0.0000000000000001
 21
2.07868253474671
 31
0.0
  0
LINE
  5
B76A
330
B756
100
AcDbEntity
  8
0
  6
CONTINUOUS
100
AcDbLine
 10
1.420999999998571
 20
1.331201743828324
 30
0.0
 11
-0.0000000000000001
 21
2.752201743826896
 31
0.0
  0
LINE
  5
B76B
330
B756
100
AcDbEntity
  8
0
  6
CONTINUOUS
100
AcDbLine
 10
1.420999999998571
 20
2.004720952908511
 30
0.0
 11
-0.0000000000000002
 21
3.425720952907082
 31
0.0
  0
LINE
  5
B76C
330
B756
100
AcDbEntity
  8
0
  6
CONTINUOUS
100
AcDbLine
 10
1.420999999998571
 20
2.678240161988697
 30
0.0
 11
-0.0000000000000001
 21
4.099240161987269
 31
0.0
  0
LINE
  5
B76D
330
B756
100
AcDbEntity
  8
0
  6
CONTINUOUS
100
AcDbLine
 10
1.420999999998572
 20
3.351759371068884
 30
0.0
 11
0.0
 21
4.772759371067455
 31
0.0
  0
LINE
  5
B76E
330
B756
100
AcDbEntity
  8
0
  6
CONTINUOUS
100
AcDbLine
 10
1.420999999998571
 20
4.02527858014907
 30
0.0
 11
-0.0000000000000003
 21
5.446278580147642
 31
0.0
  0
LINE
  5
B76F
330
B756
100
AcDbEntity
  8
0
  6
CONTINUOUS
100
AcDbLine
 10
1.420999999998571
 20
4.698797789229257
 30
0.0
 11
0.0
 21
6.119797789227828
 31
0.0
  0
LINE
  5
B770
330
B756
100
AcDbEntity
  8
0
  6
CONTINUOUS
100
AcDbLine
 10
1.420999999998571
 20
5.372316998309444
 30
0.0
 11
-0.0000000000000001
 21
6.793316998308015
 31
0.0
  0
LINE
  5
B771
330
B756
100
AcDbEntity
  8
0
  6
CONTINUOUS
100
AcDbLine
 10
1.420999999998572
 20
6.045836207389629
 30
0.0
 11
-0.0000000000000004
 21
7.466836207388202
 31
0.0
  0
LINE
  5
B772
330
B756
100
AcDbEntity
  8
0
  6
CONTINUOUS
100
AcDbLine
 10
1.420999999998571
 20
6.719355416469816
 30
0.0
 11
0.0
 21
8.140355416468388
 31
0.0
  0
LINE
  5
B773
330
B756
100
AcDbEntity
  8
0
  6
CONTINUOUS
100
AcDbLine
 10
1.420999999998571
 20
7.392874625550003
 30
0.0
 11
0.0507746255573185
 21
8.763099999991255
 31
0.0
  0
LINE
  5
B774
330
B756
100
AcDbEntity
  8
0
  6
CONTINUOUS
100
AcDbLine
 10
1.420999999998571
 20
8.06639383463019
 30
0.0
 11
0.7242938346375052
 21
8.763099999991255
 31
0.0
  0
LINE
  5
B775
330
B756
100
AcDbEntity
  8
0
  6
CONTINUOUS
100
AcDbLine
 10
1.420999999998571
 20
8.739913043710375
 30
0.0
 11
1.397813043717691
 21
8.763099999991255
 31
0.0
  0
ENDBLK
  5
B781
330
B756
100
AcDbEntity
  8
0
100
AcDbBlockEnd
  0
ENDSEC
  0
SECTION
  2
ENTITIES
  0
LINE
  5
B045
330
18
100
AcDbEntity
  8
01
  6
BYBLOCK
100
AcDbLine
 10
5015.188675618886
 20
-134.329183697275
 30
0.0
 11
5168.943055773917
 21
-134.329183697275
 31
0.0
  0
LINE
  5
B046
330
18
100
AcDbEntity
  8
01
100
AcDbLine
 10
4916.187907776569
 20
-174.3278653841723
 30
0.0
 11
4916.187907776569
 21
-364.3278653841723
 31
0.0
  0
LINE
  5
B047
330
18
100
AcDbEntity
  8
01
100
AcDbLine
 10
5036.187907776569
 20
-294.3278653841723
 30
0.0
 11
5096.187907776569
 21
-294.3278653841723
 31
0.0
  0
LINE
  5
B048
330
18
100
AcDbEntity
  8
01
100
AcDbLine
 10
5066.187907776569
 20
-264.3278653841723
 30
0.0
 11
5066.187907776569
 21
-324.3278653841723
 31
0.0
  0
LINE
  5
B04A
330
18
100
AcDbEntity
  8
01
100
AcDbLine
 10
4917.687907776569
 20
-269.327876967379
 30
0.0
 11
4917.687907776569
 21
-319.327876967379
 31
0.0
  0
LINE
  5
B04B
330
18
100
AcDbEntity
  8
01
100
AcDbLine
 10
4915.559730159336
 20
-294.3278653841723
 30
0.0
 11
4938.188015541767
 21
-294.3278653841723
 31
0.0
  0
TEXT
  5
B04C
330
18
100
AcDbEntity
  8
1TEXT
100
AcDbText
 10
4916.187907776569
 20
-134.3278653841723
 30
0.0
 40
10.0
  1
HPC
 41
1.0171875
100
AcDbText
  0
LINE
  5
B04D
330
18
100
AcDbEntity
  8
01
100
AcDbLine
 10
5066.187907776569
 20
-130.829306739243
 30
0.0
 11
5066.187907776569
 21
-157.329306739243
 31
0.0
  0
LINE
  5
B053
330
18
100
AcDbEntity
  8
1CENTER
100
AcDbLine
 10
4931.188015541767
 20
-322.3694536816844
 30
0.0
 11
4931.188015541767
 21
-309.535852420008
 31
0.0
  0
LINE
  5
B054
330
18
100
AcDbEntity
  8
01
100
AcDbLine
 10
5079.196787701024
 20
-135.829306739243
 30
0.0
 11
5041.187923271066
 21
-135.829306739243
 31
0.0
  0
LINE
  5
B055
330
18
100
AcDbEntity
  8
01
100
AcDbLine
 10
5091.187884651494
 20
-135.8293067392435
 30
0.0
 11
5079.19678769878
 21
-135.829308042237
 31
0.0
  0
ARC
  5
B058
330
18
100
AcDbEntity
  8
01
100
AcDbCircle
 10
5113.689623088703
 20
334.2798482456026
 30
0.0
 40
528.1090319428778
100
AcDbArc
 50
265.9595242675202
 51
277.2926334774172
  0
LINE
  5
B059
330
18
100
AcDbEntity
  8
01
100
AcDbLine
 10
5079.30638355191
 20
-138.9623118114297
 30
0.0
 11
5079.196786986052
 21
-138.9655071461795
 31
0.0
  0
ARC
  5
B05A
330
18
100
AcDbEntity
  8
01
100
AcDbCircle
 10
5066.188626451708
 20
-122.2468814167143
 30
0.0
 40
29.99901843931813
100
AcDbArc
 50
302.8306106787207
 51
325.8518257055623
  0
LINE
  5
B05D
330
18
100
AcDbEntity
  8
01
100
AcDbLine
 10
5091.187711034316
 20
-138.5436411369548
 30
0.0
 11
5091.187884641437
 21
-138.5250477684005
 31
0.0
  0
ARC
  5
B05F
330
18
100
AcDbEntity
  8
01
100
AcDbCircle
 10
5127.841127906366
 20
-395.6730439987043
 30
0.0
 40
229.9999999964173
100
AcDbArc
 50
77.73027966795219
 51
99.48857393158305
  0
LINE
  5
B061
330
18
100
AcDbEntity
  8
01
100
AcDbLine
 10
5091.187884946168
 20
-138.525047768395
 30
0.0
 11
5091.187884651494
 21
-135.8293067392435
 31
0.0
  0
ARC
  5
B062
330
18
100
AcDbEntity
  8
01
100
AcDbCircle
 10
5090.187606910487
 20
-138.5249586714392
 30
0.0
 40
1.00027963916497
100
AcDbArc
 50
325.8566275350825
 51
358.9298094946896
  0
ARC
  5
B063
330
18
100
AcDbEntity
  8
01
100
AcDbCircle
 10
5066.186811829422
 20
-122.2452558948718
 30
0.0
 40
30.00143283462312
100
AcDbArc
 50
325.8212631842339
 51
325.851202149356
  0
ARC
  5
B064
330
18
100
AcDbEntity
  8
01
100
AcDbCircle
 10
5066.18681187202
 20
-122.2452559297901
 30
0.0
 40
30.00143277960563
100
AcDbArc
 50
325.8212914015687
 51
325.8512021593367
  0
LINE
  5
B067
330
18
100
AcDbEntity
  8
01
100
AcDbLine
 10
4973.895375637738
 20
-292.5260728536243
 30
0.0
 11
4973.911110466279
 21
-292.5259321600763
 31
0.0
  0
LINE
  5
B068
330
18
100
AcDbEntity
  8
01
100
AcDbLine
 10
4973.895375952772
 20
-296.1296511554626
 30
0.0
 11
4973.911110781338
 21
-296.1297918660486
 31
0.0
  0
LINE
  5
B06F
330
18
100
AcDbEntity
  8
01
100
AcDbLine
 10
4971.176895242189
 20
-290.9501212362767
 30
0.0
 11
4971.175124943149
 21
-290.949366837586
 31
0.0
  0
LINE
  5
B076
330
18
100
AcDbEntity
  8
01
100
AcDbLine
 10
4975.68791713441
 20
-293.4861813753866
 30
0.0
 11
4975.687928453521
 21
-294.3278634824744
 31
0.0
  0
ARC
  5
B079
330
18
100
AcDbEntity
  8
01
100
AcDbCircle
 10
4974.679991944006
 20
-293.4881161878954
 30
0.0
 40
1.007927487970463
100
AcDbArc
 50
0.1099829682750123
 51
66.86976260985311
  0
LINE
  5
B07A
330
18
100
AcDbEntity
  8
01
100
AcDbLine
 10
4971.176895832785
 20
-297.7056039986562
 30
0.0
 11
4971.175125342557
 21
-297.7063585069438
 31
0.0
  0
LINE
  5
B07D
330
18
100
AcDbEntity
  8
01
100
AcDbLine
 10
4975.687917281574
 20
-295.1695455900364
 30
0.0
 11
4975.687928453521
 21
-294.3278634824744
 31
0.0
  0
ARC
  5
B080
330
18
100
AcDbEntity
  8
01
100
AcDbCircle
 10
4974.679992697613
 20
-295.1676111053118
 30
0.0
 40
1.007926880900325
100
AcDbArc
 50
293.1302246412993
 51
359.8900355984133
  0
LINE
  5
B081
330
18
100
AcDbEntity
  8
01
100
AcDbLine
 10
5180.726272186969
 20
-189.5571814951024
 30
0.0
 11
5181.043899140094
 21
-189.5163031992039
 31
0.0
  0
LINE
  5
B085
330
18
100
AcDbEntity
  8
01
100
AcDbLine
 10
5079.238117396854
 20
-273.1828479470016
 30
0.0
 11
5079.129315847518
 21
-273.1166994324137
 31
0.0
  0
LINE
  5
B086
330
18
100
AcDbEntity
  8
01
100
AcDbLine
 10
5076.285371232541
 20
-292.5272284741274
 30
0.0
 11
5076.511737691077
 21
-292.5270877720606
 31
0.0
  0
LINE
  5
B088
330
18
100
AcDbEntity
  8
01
100
AcDbLine
 10
5076.285371232541
 20
-296.1308067759662
 30
0.0
 11
5076.511737691077
 21
-296.1309474780334
 31
0.0
  0
LINE
  5
B089
330
18
100
AcDbEntity
  8
01
100
AcDbLine
 10
5079.306137322633
 20
-315.611225420597
 30
0.0
 11
5079.196540756775
 21
-315.6783866551565
 31
0.0
  0
LINE
  5
B08A
330
18
100
AcDbEntity
  8
01
100
AcDbLine
 10
5079.238117396854
 20
-315.4751873030925
 30
0.0
 11
5079.129315847518
 21
-315.5413358176804
 31
0.0
  0
ARC
  5
B098
330
18
100
AcDbEntity
  8
01
100
AcDbCircle
 10
5066.187907776569
 20
-294.3278653841723
 30
0.0
 40
25.00020486041982
100
AcDbArc
 50
12.81555839947107
 51
347.1790256492343
  0
LINE
  5
B099
330
18
100
AcDbEntity
  8
01
100
AcDbLine
 10
5088.687907776568
 20
-134.329183697275
 30
0.0
 11
5088.687907776568
 21
-135.8293070108995
 31
0.0
  0
LINE
  5
B09A
330
18
100
AcDbEntity
  8
01
100
AcDbLine
 10
5043.68790777657
 20
-134.329183697275
 30
0.0
 11
5043.68790777657
 21
-135.8293067392426
 31
0.0
  0
LINE
  5
B09B
330
18
100
AcDbEntity
  8
01
100
AcDbLine
 10
5043.68790777657
 20
-134.329183697275
 30
0.0
 11
5088.687907776568
 21
-134.329183697275
 31
0.0
  0
LINE
  5
B09C
330
18
100
AcDbEntity
  8
01
100
AcDbLine
 10
4916.1877847346
 20
-271.8278653841728
 30
0.0
 11
4917.687908048225
 21
-271.8278653841728
 31
0.0
  0
LINE
  5
B09D
330
18
100
AcDbEntity
  8
01
100
AcDbLine
 10
4916.1877847346
 20
-316.8278653841718
 30
0.0
 11
4917.687907776568
 21
-316.8278653841718
 31
0.0
  0
LINE
  5
B09E
330
18
100
AcDbEntity
  8
01
100
AcDbLine
 10
4916.1877847346
 20
-316.8278653841718
 30
0.0
 11
4916.1877847346
 21
-271.8278653841728
 31
0.0
  0
LINE
  5
B2EE
330
18
100
AcDbEntity
  8
01
100
AcDbLine
 10
5066.187907776569
 20
-269.3278653841723
 30
0.0
 11
5029.887907776569
 21
-269.3278653841723
 31
0.0
1001
ACAD
1000
DSTYLE
1002
{
1070
     3
1000
φ<>
1070
    40
1040
1.3
1070
    45
1040
0.5
1002
}
  0
LINE
  5
B2EF
330
18
100
AcDbEntity
  8
01
100
AcDbLine
 10
5066.187907776569
 20
-319.3278653841714
 30
0.0
 11
5029.887907776569
 21
-319.3278653841714
 31
0.0
1001
ACAD
1000
DSTYLE
1002
{
1070
     3
1000
φ<>
1070
    40
1040
1.3
1070
    45
1040
0.5
1002
}
  0
LINE
  5
B2F0
330
18
100
AcDbEntity
  8
01
100
AcDbLine
 10
5031.187907776569
 20
-271.9278653841723
 30
0.0
 11
5031.187907776569
 21
-316.7278653841714
 31
0.0
1001
ACAD
1000
DSTYLE
1002
{
1070
     3
1000
φ<>
1070
    40
1040
1.3
1070
    45
1040
0.5
1002
}
  0
LINE
  5
B2F4
330
18
100
AcDbEntity
  8
01
100
AcDbLine
 10
5066.187907776569
 20
-269.3278653841723
 30
0.0
 11
5029.887907776569
 21
-269.3278653841723
 31
0.0
1001
ACAD
1000
DSTYLE
1002
{
1070
     3
1000
φ<>
1070
    40
1040
1.3
1070
    45
1040
0.5
1002
}
  0
LINE
  5
B2F5
330
18
100
AcDbEntity
  8
01
100
AcDbLine
 10
5066.187907776569
 20
-319.3278653841714
 30
0.0
 11
5029.887907776569
 21
-319.3278653841714
 31
0.0
1001
ACAD
1000
DSTYLE
1002
{
1070
     3
1000
φ<>
1070
    40
1040
1.3
1070
    45
1040
0.5
1002
}
  0
LINE
  5
B2F6
330
18
100
AcDbEntity
  8
01
100
AcDbLine
 10
5031.187907776569
 20
-271.9278653841723
 30
0.0
 11
5031.187907776569
 21
-316.7278653841714
 31
0.0
1001
ACAD
1000
DSTYLE
1002
{
1070
     3
1000
φ<>
1070
    40
1040
1.3
1070
    45
1040
0.5
1002
}
  0
LINE
  5
B2FA
330
18
100
AcDbEntity
  8
01
100
AcDbLine
 10
5091.187881073688
 20
-138.5250617441258
 30
0.0
 11
5091.11119039986
 21
-138.5287848886571
 31
0.0
  0
LINE
  5
B2FB
330
18
100
AcDbEntity
  8
01
100
AcDbLine
 10
5091.11119039986
 20
-138.5287848886571
 30
0.0
 11
5090.882217011188
 21
-138.5395881113133
 31
0.0
  0
LINE
  5
B2FC
330
18
100
AcDbEntity
  8
01
100
AcDbLine
 10
5090.882217011188
 20
-138.5395881113133
 30
0.0
 11
5090.502639374469
 21
-138.5581427988133
 31
0.0
  0
LINE
  5
B2FD
330
18
100
AcDbEntity
  8
01
100
AcDbLine
 10
5090.502639374469
 20
-138.5581427988133
 30
0.0
 11
5089.974288544391
 21
-138.5849067148289
 31
0.0
  0
LINE
  5
B2FE
330
18
100
AcDbEntity
  8
01
100
AcDbLine
 10
5089.974288544391
 20
-138.5849067148289
 30
0.0
 11
5089.300353607868
 21
-138.6187812265477
 31
0.0
  0
LINE
  5
B2FF
330
18
100
AcDbEntity
  8
01
100
AcDbLine
 10
5089.300353607868
 20
-138.6187812265477
 30
0.0
 11
5088.485183319782
 21
-138.6575690683446
 31
0.0
  0
LINE
  5
B300
330
18
100
AcDbEntity
  8
01
100
AcDbLine
 10
5088.485183319782
 20
-138.6575690683446
 30
0.0
 11
5087.533736786579
 21
-138.6990729745946
 31
0.0
  0
LINE
  5
B301
330
18
100
AcDbEntity
  8
01
100
AcDbLine
 10
5087.533736786579
 20
-138.6990729745946
 30
0.0
 11
5086.451613983844
 21
-138.7411567148289
 31
0.0
  0
LINE
  5
B302
330
18
100
AcDbEntity
  8
01
100
AcDbLine
 10
5086.451613983844
 20
-138.7411567148289
 30
0.0
 11
5085.245605072711
 21
-138.7832709726414
 31
0.0
  0
LINE
  5
B303
330
18
100
AcDbEntity
  8
01
100
AcDbLine
 10
5085.245605072711
 20
-138.7832709726414
 30
0.0
 11
5083.923431000446
 21
-138.8258735117039
 31
0.0
  0
LINE
  5
B304
330
18
100
AcDbEntity
  8
01
100
AcDbLine
 10
5083.923431000446
 20
-138.8258735117039
 30
0.0
 11
5082.492843231891
 21
-138.8694831308446
 31
0.0
  0
LINE
  5
B305
330
18
100
AcDbEntity
  8
01
100
AcDbLine
 10
5082.492843231891
 20
-138.8694831308446
 30
0.0
 11
5080.962386688922
 21
-138.9145270761571
 31
0.0
  0
LINE
  5
B306
330
18
100
AcDbEntity
  8
01
100
AcDbLine
 10
5080.962386688922
 20
-138.9145270761571
 30
0.0
 11
5079.306380829547
 21
-138.9623176035008
 31
0.0
  0
LINE
  5
B307
330
18
100
AcDbEntity
  8
01
100
AcDbLine
 10
5079.196685394977
 20
-138.9655219492039
 30
0.0
 11
5077.531295380329
 21
-139.0411750253758
 31
0.0
  0
LINE
  5
B308
330
18
100
AcDbEntity
  8
01
100
AcDbLine
 10
5077.531295380329
 20
-139.0411750253758
 30
0.0
 11
5075.801055512165
 21
-139.1753302988133
 31
0.0
  0
LINE
  5
B309
330
18
100
AcDbEntity
  8
01
100
AcDbLine
 10
5075.801055512165
 20
-139.1753302988133
 30
0.0
 11
5074.023208222126
 21
-139.3693305429539
 31
0.0
  0
LINE
  5
B30A
330
18
100
AcDbEntity
  8
01
100
AcDbLine
 10
5074.023208222126
 20
-139.3693305429539
 30
0.0
 11
5072.213973602985
 21
-139.6331550058446
 31
0.0
  0
LINE
  5
B30B
330
18
100
AcDbEntity
  8
01
100
AcDbLine
 10
5072.213973602985
 20
-139.6331550058446
 30
0.0
 11
5070.38934286568
 21
-139.9714118417821
 31
0.0
  0
LINE
  5
B30C
330
18
100
AcDbEntity
  8
01
100
AcDbLine
 10
5070.38934286568
 20
-139.9714118417821
 30
0.0
 11
5068.564223847126
 21
-140.3887397226414
 31
0.0
  0
LINE
  5
B30D
330
18
100
AcDbEntity
  8
01
100
AcDbLine
 10
5068.564223847126
 20
-140.3887397226414
 30
0.0
 11
5066.752868256305
 21
-140.8908149179539
 31
0.0
  0
LINE
  5
B30E
330
18
100
AcDbEntity
  8
01
100
AcDbLine
 10
5066.752868256305
 20
-140.8908149179539
 30
0.0
 11
5064.968841156696
 21
-141.4813605722508
 31
0.0
  0
LINE
  5
B30F
330
18
100
AcDbEntity
  8
01
100
AcDbLine
 10
5064.968841156696
 20
-141.4813605722508
 30
0.0
 11
5063.225158295368
 21
-142.1630317148289
 31
0.0
  0
LINE
  5
B310
330
18
100
AcDbEntity
  8
01
100
AcDbLine
 10
5063.225158295368
 20
-142.1630317148289
 30
0.0
 11
5061.534896454547
 21
-142.9384833749852
 31
0.0
  0
LINE
  5
B311
330
18
100
AcDbEntity
  8
01
100
AcDbLine
 10
5061.534896454547
 20
-142.9384833749852
 30
0.0
 11
5059.909942230915
 21
-143.8081427988133
 31
0.0
  0
LINE
  5
B312
330
18
100
AcDbEntity
  8
01
100
AcDbLine
 10
5059.909942230915
 20
-143.8081427988133
 30
0.0
 11
5058.360976776813
 21
-144.7705756601414
 31
0.0
  0
LINE
  5
B313
330
18
100
AcDbEntity
  8
01
100
AcDbLine
 10
5058.360976776813
 20
-144.7705756601414
 30
0.0
 11
5056.896987519001
 21
-145.8221198495946
 31
0.0
  0
LINE
  5
B314
330
18
100
AcDbEntity
  8
01
100
AcDbLine
 10
5056.896987519001
 20
-145.8221198495946
 30
0.0
 11
5055.526473602985
 21
-146.9586554941258
 31
0.0
  0
LINE
  5
B315
330
18
100
AcDbEntity
  8
01
100
AcDbLine
 10
5055.526473602985
 20
-146.9586554941258
 30
0.0
 11
5054.255141815876
 21
-148.1745673593602
 31
0.0
  0
LINE
  5
B316
330
18
100
AcDbEntity
  8
01
100
AcDbLine
 10
5054.255141815876
 20
-148.1745673593602
 30
0.0
 11
5053.086654267047
 21
-149.4631110605321
 31
0.0
  0
LINE
  5
B317
330
18
100
AcDbEntity
  8
01
100
AcDbLine
 10
5053.086654267047
 20
-149.4631110605321
 30
0.0
 11
5052.023498139118
 21
-150.8169623788914
 31
0.0
  0
LINE
  5
B318
330
18
100
AcDbEntity
  8
01
100
AcDbLine
 10
5052.023498139118
 20
-150.8169623788914
 30
0.0
 11
5051.065658173297
 21
-152.2280036386571
 31
0.0
  0
LINE
  5
B319
330
18
100
AcDbEntity
  8
01
100
AcDbLine
 10
5051.065658173297
 20
-152.2280036386571
 30
0.0
 11
5050.211669525836
 21
-153.6893989023289
 31
0.0
  0
LINE
  5
B31A
330
18
100
AcDbEntity
  8
01
100
AcDbLine
 10
5050.211669525836
 20
-153.6893989023289
 30
0.0
 11
5049.45867880318
 21
-155.1944648202977
 31
0.0
  0
LINE
  5
B31B
330
18
100
AcDbEntity
  8
01
100
AcDbLine
 10
5049.45867880318
 20
-155.1944648202977
 30
0.0
 11
5048.80276449654
 21
-156.7362128671727
 31
0.0
  0
LINE
  5
B31C
330
18
100
AcDbEntity
  8
01
100
AcDbLine
 10
5048.80276449654
 20
-156.7362128671727
 30
0.0
 11
5048.239348969196
 21
-158.3086921152196
 31
0.0
  0
LINE
  5
B31D
330
18
100
AcDbEntity
  8
01
100
AcDbLine
 10
5048.239348969196
 20
-158.3086921152196
 30
0.0
 11
5047.763839325641
 21
-159.9073249277196
 31
0.0
  0
LINE
  5
B31E
330
18
100
AcDbEntity
  8
01
100
AcDbLine
 10
5047.763839325641
 20
-159.9073249277196
 30
0.0
 11
5047.369994721149
 21
-161.5261603769383
 31
0.0
  0
LINE
  5
B31F
330
18
100
AcDbEntity
  8
01
100
AcDbLine
 10
5047.369994721149
 20
-161.5261603769383
 30
0.0
 11
5047.048003754352
 21
-163.1579963144383
 31
0.0
  0
LINE
  5
B320
330
18
100
AcDbEntity
  8
01
100
AcDbLine
 10
5047.048003754352
 20
-163.1579963144383
 30
0.0
 11
5046.790252289508
 21
-164.8035346445164
 31
0.0
  0
LINE
  5
B321
330
18
100
AcDbEntity
  8
01
100
AcDbLine
 10
5046.790252289508
 20
-164.8035346445164
 30
0.0
 11
5046.61314352486
 21
-166.4674140390477
 31
0.0
  0
LINE
  5
B322
330
18
100
AcDbEntity
  8
01
100
AcDbLine
 10
5046.61314352486
 20
-166.4674140390477
 30
0.0
 11
5046.534988007282
 21
-168.1457892831883
 31
0.0
  0
LINE
  5
B323
330
18
100
AcDbEntity
  8
01
100
AcDbLine
 10
5046.534988007282
 20
-168.1457892831883
 30
0.0
 11
5046.565139374469
 21
-169.8293830331883
 31
0.0
  0
LINE
  5
B324
330
18
100
AcDbEntity
  8
01
100
AcDbLine
 10
5046.565139374469
 20
-169.8293830331883
 30
0.0
 11
5046.709029755329
 21
-171.5137092050633
 31
0.0
  0
LINE
  5
B325
330
18
100
AcDbEntity
  8
01
100
AcDbLine
 10
5046.709029755329
 20
-171.5137092050633
 30
0.0
 11
5046.973937592243
 21
-173.1910163339696
 31
0.0
  0
LINE
  5
B326
330
18
100
AcDbEntity
  8
01
100
AcDbLine
 10
5046.973937592243
 20
-173.1910163339696
 30
0.0
 11
5047.367248139118
 21
-174.8526069101414
 31
0.0
  0
LINE
  5
B327
330
18
100
AcDbEntity
  8
01
100
AcDbLine
 10
5047.367248139118
 20
-174.8526069101414
 30
0.0
 11
5047.89520224068
 21
-176.4877997812352
 31
0.0
  0
LINE
  5
B328
330
18
100
AcDbEntity
  8
01
100
AcDbLine
 10
5047.89520224068
 20
-176.4877997812352
 30
0.0
 11
5048.561889252399
 21
-178.0847846445164
 31
0.0
  0
LINE
  5
B329
330
18
100
AcDbEntity
  8
01
100
AcDbLine
 10
5048.561889252399
 20
-178.0847846445164
 30
0.0
 11
5049.369460663532
 21
-179.6309882577977
 31
0.0
  0
LINE
  5
B32A
330
18
100
AcDbEntity
  8
01
100
AcDbLine
 10
5049.369460663532
 20
-179.6309882577977
 30
0.0
 11
5050.316817841266
 21
-181.1133643564305
 31
0.0
  0
LINE
  5
B32B
330
18
100
AcDbEntity
  8
01
100
AcDbLine
 10
5050.316817841266
 20
-181.1133643564305
 30
0.0
 11
5051.398742279743
 21
-182.5192786630711
 31
0.0
  0
LINE
  5
B32C
330
18
100
AcDbEntity
  8
01
100
AcDbLine
 10
5051.398742279743
 20
-182.5192786630711
 30
0.0
 11
5052.607162079547
 21
-183.838095801743
 31
0.0
  0
LINE
  5
B32D
330
18
100
AcDbEntity
  8
01
100
AcDbLine
 10
5052.607162079547
 20
-183.838095801743
 30
0.0
 11
5053.930831513141
 21
-185.0617133554539
 31
0.0
  0
LINE
  5
B32E
330
18
100
AcDbEntity
  8
01
100
AcDbLine
 10
5053.930831513141
 20
-185.0617133554539
 30
0.0
 11
5055.356292328571
 21
-186.1843177255711
 31
0.0
  0
LINE
  5
B32F
330
18
100
AcDbEntity
  8
01
100
AcDbLine
 10
5055.356292328571
 20
-186.1843177255711
 30
0.0
 11
5056.869308075641
 21
-187.2027045663914
 31
0.0
  0
LINE
  5
B330
330
18
100
AcDbEntity
  8
01
100
AcDbLine
 10
5056.869308075641
 20
-187.2027045663914
 30
0.0
 11
5058.456130585407
 21
-188.1179267343602
 31
0.0
  0
LINE
  5
B331
330
18
100
AcDbEntity
  8
01
100
AcDbLine
 10
5058.456130585407
 20
-188.1179267343602
 30
0.0
 11
5060.103255829547
 21
-188.9322272714696
 31
0.0
  0
LINE
  5
B332
330
18
100
AcDbEntity
  8
01
100
AcDbLine
 10
5060.103255829547
 20
-188.9322272714696
 30
0.0
 11
5061.799163422321
 21
-189.6492530283055
 31
0.0
  0
LINE
  5
B333
330
18
100
AcDbEntity
  8
01
100
AcDbLine
 10
5061.799163422321
 20
-189.6492530283055
 30
0.0
 11
5063.534545502399
 21
-190.2741614755711
 31
0.0
  0
LINE
  5
B334
330
18
100
AcDbEntity
  8
01
100
AcDbLine
 10
5063.534545502399
 20
-190.2741614755711
 30
0.0
 11
5065.301375946735
 21
-190.8118201669774
 31
0.0
  0
LINE
  5
B335
330
18
100
AcDbEntity
  8
01
100
AcDbLine
 10
5065.301375946735
 20
-190.8118201669774
 30
0.0
 11
5067.093505463336
 21
-191.2657691415868
 31
0.0
  0
LINE
  5
B336
330
18
100
AcDbEntity
  8
01
100
AcDbLine
 10
5067.093505463336
 20
-191.2657691415868
 30
0.0
 11
5068.905395111774
 21
-191.6391669687352
 31
0.0
  0
LINE
  5
B337
330
18
100
AcDbEntity
  8
01
100
AcDbLine
 10
5068.905395111774
 20
-191.6391669687352
 30
0.0
 11
5070.73016317818
 21
-191.9379035410008
 31
0.0
  0
LINE
  5
B338
330
18
100
AcDbEntity
  8
01
100
AcDbLine
 10
5070.73016317818
 20
-191.9379035410008
 30
0.0
 11
5072.561614594196
 21
-192.1715003427586
 31
0.0
  0
LINE
  5
B339
330
18
100
AcDbEntity
  8
01
100
AcDbLine
 10
5072.561614594196
 20
-192.1715003427586
 30
0.0
 11
5074.394118866657
 21
-192.3534919199071
 31
0.0
  0
LINE
  5
B33A
330
18
100
AcDbEntity
  8
01
100
AcDbLine
 10
5074.394118866657
 20
-192.3534919199071
 30
0.0
 11
5076.253264984821
 21
-192.5006629404149
 31
0.0
  0
LINE
  5
B33B
330
18
100
AcDbEntity
  8
01
100
AcDbLine
 10
5041.187926850055
 20
-135.8292914804539
 30
0.0
 11
5041.189895233844
 21
-139.2806464609227
 31
0.0
  0
LINE
  5
B33C
330
18
100
AcDbEntity
  8
01
100
AcDbLine
 10
5041.189895233844
 20
-139.2806464609227
 30
0.0
 11
5041.204238495563
 21
-142.7319709238133
 31
0.0
  0
LINE
  5
B33D
330
18
100
AcDbEntity
  8
01
100
AcDbLine
 10
5041.204238495563
 20
-142.7319709238133
 30
0.0
 11
5041.244079193805
 21
-146.1830512460789
 31
0.0
  0
LINE
  5
B33E
330
18
100
AcDbEntity
  8
01
100
AcDbLine
 10
5041.244079193805
 20
-146.1830512460789
 30
0.0
 11
5041.322906098102
 21
-149.6334906992039
 31
0.0
  0
LINE
  5
B33F
330
18
100
AcDbEntity
  8
01
100
AcDbLine
 10
5041.322906098102
 20
-149.6334906992039
 30
0.0
 11
5041.454757294391
 21
-153.0822516855321
 31
0.0
  0
LINE
  5
B340
330
18
100
AcDbEntity
  8
01
100
AcDbLine
 10
5041.454757294391
 20
-153.0822516855321
 30
0.0
 11
5041.655028900836
 21
-156.5277167734227
 31
0.0
  0
LINE
  5
B341
330
18
100
AcDbEntity
  8
01
100
AcDbLine
 10
5041.655028900836
 20
-156.5277167734227
 30
0.0
 11
5041.941375336383
 21
-159.9670478281102
 31
0.0
  0
LINE
  5
B342
330
18
100
AcDbEntity
  8
01
100
AcDbLine
 10
5041.941375336383
 20
-159.9670478281102
 30
0.0
 11
5042.33499105904
 21
-163.3956977304539
 31
0.0
  0
LINE
  5
B343
330
18
100
AcDbEntity
  8
01
100
AcDbLine
 10
5042.33499105904
 20
-163.3956977304539
 30
0.0
 11
5042.865310272907
 21
-166.8235236581883
 31
0.0
  0
LINE
  5
B344
330
18
100
AcDbEntity
  8
01
100
AcDbLine
 10
5042.865432343219
 20
-166.8234931406102
 30
0.0
 11
5043.252837738727
 21
-168.7978583749852
 31
0.0
  0
LINE
  5
B345
330
18
100
AcDbEntity
  8
01
100
AcDbLine
 10
5043.252837738727
 20
-168.7978583749852
 30
0.0
 11
5043.72674520943
 21
-170.7531501230321
 31
0.0
  0
LINE
  5
B346
330
18
100
AcDbEntity
  8
01
100
AcDbLine
 10
5043.72674520943
 20
-170.7531501230321
 30
0.0
 11
5044.308471283649
 21
-172.6790229257664
 31
0.0
  0
LINE
  5
B347
330
18
100
AcDbEntity
  8
01
100
AcDbLine
 10
5044.308471283649
 20
-172.6790229257664
 30
0.0
 11
5045.012191376422
 21
-174.5636664804539
 31
0.0
  0
LINE
  5
B348
330
18
100
AcDbEntity
  8
01
100
AcDbLine
 10
5045.012191376422
 20
-174.5636664804539
 30
0.0
 11
5045.845504364704
 21
-176.3946601327977
 31
0.0
  0
LINE
  5
B349
330
18
100
AcDbEntity
  8
01
100
AcDbLine
 10
5045.845504364704
 20
-176.3946601327977
 30
0.0
 11
5046.81057699654
 21
-178.1597052988133
 31
0.0
  0
LINE
  5
B34A
330
18
100
AcDbEntity
  8
01
100
AcDbLine
 10
5046.81057699654
 20
-178.1597052988133
 30
0.0
 11
5047.905471405719
 21
-179.8472663339696
 31
0.0
  0
LINE
  5
B34B
330
18
100
AcDbEntity
  8
01
100
AcDbLine
 10
5047.905471405719
 20
-179.8472663339696
 30
0.0
 11
5049.125259003376
 21
-181.4469062265477
 31
0.0
  0
LINE
  5
B34C
330
18
100
AcDbEntity
  8
01
100
AcDbLine
 10
5049.125259003376
 20
-181.4469062265477
 30
0.0
 11
5050.462951264118
 21
-182.9493171152196
 31
0.0
  0
LINE
  5
B34D
330
18
100
AcDbEntity
  8
01
100
AcDbLine
 10
5050.462951264118
 20
-182.9493171152196
 30
0.0
 11
5051.910262665485
 21
-184.3464881357274
 31
0.0
  0
LINE
  5
B34E
330
18
100
AcDbEntity
  8
01
100
AcDbLine
 10
5051.910262665485
 20
-184.3464881357274
 30
0.0
 11
5053.457900604938
 21
-185.6316443857274
 31
0.0
  0
LINE
  5
B34F
330
18
100
AcDbEntity
  8
01
100
AcDbLine
 10
5053.457900604938
 20
-185.6316443857274
 30
0.0
 11
5055.095916352008
 21
-186.7994910654149
 31
0.0
  0
LINE
  5
B350
330
18
100
AcDbEntity
  8
01
100
AcDbLine
 10
5055.095916352008
 20
-186.7994910654149
 30
0.0
 11
5056.813811859821
 21
-187.8463050302586
 31
0.0
  0
LINE
  5
B351
330
18
100
AcDbEntity
  8
01
100
AcDbLine
 10
5056.813811859821
 20
-187.8463050302586
 30
0.0
 11
5058.600738129352
 21
-188.7703467783055
 31
0.0
  0
LINE
  5
B352
330
18
100
AcDbEntity
  8
01
100
AcDbLine
 10
5058.600738129352
 20
-188.7703467783055
 30
0.0
 11
5060.445815644001
 21
-189.5720588144383
 31
0.0
  0
LINE
  5
B353
330
18
100
AcDbEntity
  8
01
100
AcDbLine
 10
5060.445815644001
 20
-189.5720588144383
 30
0.0
 11
5062.338286957477
 21
-190.2544471201024
 31
0.0
  0
LINE
  5
B354
330
18
100
AcDbEntity
  8
01
100
AcDbLine
 10
5062.338286957477
 20
-190.2544471201024
 30
0.0
 11
5064.268035492633
 21
-190.8232184824071
 31
0.0
  0
LINE
  5
B355
330
18
100
AcDbEntity
  8
01
100
AcDbLine
 10
5064.268035492633
 20
-190.8232184824071
 30
0.0
 11
5066.225799164508
 21
-191.286826270493
 31
0.0
  0
LINE
  5
B356
330
18
100
AcDbEntity
  8
01
100
AcDbLine
 10
5066.225799164508
 20
-191.286826270493
 30
0.0
 11
5068.203536591266
 21
-191.6564094003758
 31
0.0
  0
LINE
  5
B357
330
18
100
AcDbEntity
  8
01
100
AcDbLine
 10
5068.203536591266
 20
-191.6564094003758
 30
0.0
 11
5070.19468649361
 21
-191.9455634531102
 31
0.0
  0
LINE
  5
B358
330
18
100
AcDbEntity
  8
01
100
AcDbLine
 10
5070.19468649361
 20
-191.9455634531102
 30
0.0
 11
5072.19419821236
 21
-192.1700660165868
 31
0.0
  0
LINE
  5
B359
330
18
100
AcDbEntity
  8
01
100
AcDbLine
 10
5072.19419821236
 20
-192.1700660165868
 30
0.0
 11
5074.198440155719
 21
-192.3475867685399
 31
0.0
  0
LINE
  5
B35A
330
18
100
AcDbEntity
  8
01
100
AcDbLine
 10
5074.198440155719
 20
-192.3475867685399
 30
0.0
 11
5076.250152191852
 21
-192.5004340585789
 31
0.0
  0
LINE
  5
B35B
330
18
100
AcDbEntity
  8
01
100
AcDbLine
 10
5176.719344696735
 20
-170.9267035898289
 30
0.0
 11
5177.386977753376
 21
-171.0796271738133
 31
0.0
  0
LINE
  5
B35C
330
18
100
AcDbEntity
  8
01
100
AcDbLine
 10
5177.386977753376
 20
-171.0796271738133
 30
0.0
 11
5178.047195038532
 21
-171.2613288339696
 31
0.0
  0
LINE
  5
B35D
330
18
100
AcDbEntity
  8
01
100
AcDbLine
 10
5178.047195038532
 20
-171.2613288339696
 30
0.0
 11
5178.693130097126
 21
-171.4901801523289
 31
0.0
  0
LINE
  5
B35E
330
18
100
AcDbEntity
  8
01
100
AcDbLine
 10
5178.693130097126
 20
-171.4901801523289
 30
0.0
 11
5179.318526825641
 21
-171.7712775644383
 31
0.0
  0
LINE
  5
B35F
330
18
100
AcDbEntity
  8
01
100
AcDbLine
 10
5179.318526825641
 20
-171.7712775644383
 30
0.0
 11
5179.917312226032
 21
-172.1049567636571
 31
0.0
  0
LINE
  5
B360
330
18
100
AcDbEntity
  8
01
100
AcDbLine
 10
5179.917312226032
 20
-172.1049567636571
 30
0.0
 11
5180.486007294391
 21
-172.4880134042821
 31
0.0
  0
LINE
  5
B361
330
18
100
AcDbEntity
  8
01
100
AcDbLine
 10
5180.486007294391
 20
-172.4880134042821
 30
0.0
 11
5181.023208222126
 21
-172.9143744882664
 31
0.0
  0
LINE
  5
B362
330
18
100
AcDbEntity
  8
01
100
AcDbLine
 10
5181.023208222126
 20
-172.9143744882664
 30
0.0
 11
5181.528029999469
 21
-173.3780585702977
 31
0.0
  0
LINE
  5
B363
330
18
100
AcDbEntity
  8
01
100
AcDbLine
 10
5181.528029999469
 20
-173.3780585702977
 30
0.0
 11
5182.001418671344
 21
-173.8737861093602
 31
0.0
  0
LINE
  5
B364
330
18
100
AcDbEntity
  8
01
100
AcDbLine
 10
5182.001418671344
 20
-173.8737861093602
 30
0.0
 11
5182.444869599079
 21
-174.3965827402196
 31
0.0
  0
LINE
  5
B365
330
18
100
AcDbEntity
  8
01
100
AcDbLine
 10
5182.444869599079
 20
-174.3965827402196
 30
0.0
 11
5182.859878144001
 21
-174.9418403085789
 31
0.0
  0
LINE
  5
B366
330
18
100
AcDbEntity
  8
01
100
AcDbLine
 10
5182.859878144001
 20
-174.9418403085789
 30
0.0
 11
5183.247939667438
 21
-175.5065070566258
 31
0.0
  0
LINE
  5
B367
330
18
100
AcDbEntity
  8
01
100
AcDbLine
 10
5183.247939667438
 20
-175.5065070566258
 30
0.0
 11
5183.610580048297
 21
-176.0878974374852
 31
0.0
  0
LINE
  5
B368
330
18
100
AcDbEntity
  8
01
100
AcDbLine
 10
5183.610580048297
 20
-176.0878974374852
 30
0.0
 11
5183.949203095172
 21
-176.6834784921727
 31
0.0
  0
LINE
  5
B369
330
18
100
AcDbEntity
  8
01
100
AcDbLine
 10
5183.949203095172
 20
-176.6834784921727
 30
0.0
 11
5184.264754852985
 21
-177.2914802011571
 31
0.0
  0
LINE
  5
B36A
330
18
100
AcDbEntity
  8
01
100
AcDbLine
 10
5184.264754852985
 20
-177.2914802011571
 30
0.0
 11
5184.557906708454
 21
-177.9106208261571
 31
0.0
  0
LINE
  5
B36B
330
18
100
AcDbEntity
  8
01
100
AcDbLine
 10
5184.557906708454
 20
-177.9106208261571
 30
0.0
 11
5184.829421601032
 21
-178.5395881113133
 31
0.0
  0
LINE
  5
B36C
330
18
100
AcDbEntity
  8
01
100
AcDbLine
 10
5184.829421601032
 20
-178.5395881113133
 30
0.0
 11
5185.079543671344
 21
-179.1773139413914
 31
0.0
  0
LINE
  5
B36D
330
18
100
AcDbEntity
  8
01
100
AcDbLine
 10
5185.079543671344
 20
-179.1773139413914
 30
0.0
 11
5185.307998261188
 21
-179.8230964120946
 31
0.0
  0
LINE
  5
B36E
330
18
100
AcDbEntity
  8
01
100
AcDbLine
 10
5185.307998261188
 20
-179.8230964120946
 30
0.0
 11
5185.514388642047
 21
-180.4762031015477
 31
0.0
  0
LINE
  5
B36F
330
18
100
AcDbEntity
  8
01
100
AcDbLine
 10
5185.514388642047
 20
-180.4762031015477
 30
0.0
 11
5185.698257050251
 21
-181.1360083993993
 31
0.0
  0
LINE
  5
B370
330
18
100
AcDbEntity
  8
01
100
AcDbLine
 10
5185.698257050251
 20
-181.1360083993993
 30
0.0
 11
5185.857894501422
 21
-181.8020850595555
 31
0.0
  0
LINE
  5
B371
330
18
100
AcDbEntity
  8
01
100
AcDbLine
 10
5185.857894501422
 20
-181.8020850595555
 30
0.0
 11
5185.991378388141
 21
-182.474082129868
 31
0.0
  0
LINE
  5
B372
330
18
100
AcDbEntity
  8
01
100
AcDbLine
 10
5185.991378388141
 20
-182.474082129868
 30
0.0
 11
5186.09654196236
 21
-183.1515876230321
 31
0.0
  0
LINE
  5
B373
330
18
100
AcDbEntity
  8
01
100
AcDbLine
 10
5186.09654196236
 20
-183.1515876230321
 30
0.0
 11
5186.168868622516
 21
-183.8333808359227
 31
0.0
  0
LINE
  5
B374
330
18
100
AcDbEntity
  8
01
100
AcDbLine
 10
5186.168868622516
 20
-183.8333808359227
 30
0.0
 11
5186.201858124469
 21
-184.5176459726414
 31
0.0
  0
LINE
  5
B375
330
18
100
AcDbEntity
  8
01
100
AcDbLine
 10
5186.201858124469
 20
-184.5176459726414
 30
0.0
 11
5186.188766083454
 21
-185.202353614243
 31
0.0
  0
LINE
  5
B376
330
18
100
AcDbEntity
  8
01
100
AcDbLine
 10
5186.188766083454
 20
-185.202353614243
 30
0.0
 11
5186.118453583454
 21
-185.8835212167821
 31
0.0
  0
LINE
  5
B377
330
18
100
AcDbEntity
  8
01
100
AcDbLine
 10
5186.118453583454
 20
-185.8835212167821
 30
0.0
 11
5185.975020966266
 21
-186.5531379160008
 31
0.0
  0
LINE
  5
B378
330
18
100
AcDbEntity
  8
01
100
AcDbLine
 10
5185.975020966266
 20
-186.5531379160008
 30
0.0
 11
5185.738814911579
 21
-187.1958991464696
 31
0.0
  0
LINE
  5
B379
330
18
100
AcDbEntity
  8
01
100
AcDbLine
 10
5185.738814911579
 20
-187.1958991464696
 30
0.0
 11
5185.390548310016
 21
-187.7854529794774
 31
0.0
  0
LINE
  5
B37A
330
18
100
AcDbEntity
  8
01
100
AcDbLine
 10
5185.390548310016
 20
-187.7854529794774
 30
0.0
 11
5184.925033173297
 21
-188.2874976572118
 31
0.0
  0
LINE
  5
B37B
330
18
100
AcDbEntity
  8
01
100
AcDbLine
 10
5184.925033173297
 20
-188.2874976572118
 30
0.0
 11
5184.362990936969
 21
-188.6785499033055
 31
0.0
  0
LINE
  5
B37C
330
18
100
AcDbEntity
  8
01
100
AcDbLine
 10
5184.362990936969
 20
-188.6785499033055
 30
0.0
 11
5183.740035614704
 21
-188.9628669199071
 31
0.0
  0
LINE
  5
B37D
330
18
100
AcDbEntity
  8
01
100
AcDbLine
 10
5183.740035614704
 20
-188.9628669199071
 30
0.0
 11
5183.085555634235
 21
-189.1643744882664
 31
0.0
  0
LINE
  5
B37E
330
18
100
AcDbEntity
  8
01
100
AcDbLine
 10
5183.085555634235
 20
-189.1643744882664
 30
0.0
 11
5182.416396698688
 21
-189.3096991952977
 31
0.0
  0
LINE
  5
B37F
330
18
100
AcDbEntity
  8
01
100
AcDbLine
 10
5182.416396698688
 20
-189.3096991952977
 30
0.0
 11
5181.740768036579
 21
-189.4207068857274
 31
0.0
  0
LINE
  5
B380
330
18
100
AcDbEntity
  8
01
100
AcDbLine
 10
5181.740768036579
 20
-189.4207068857274
 30
0.0
 11
5181.043899140094
 21
-189.5163031992039
 31
0.0
  0
LINE
  5
B381
330
18
100
AcDbEntity
  8
01
100
AcDbLine
 10
5082.452804169391
 20
-147.4543830331883
 30
0.0
 11
5081.477019867633
 21
-148.1557685312352
 31
0.0
  0
LINE
  5
B382
330
18
100
AcDbEntity
  8
01
100
AcDbLine
 10
5081.477019867633
 20
-148.1557685312352
 30
0.0
 11
5080.576339325641
 21
-148.9513617929539
 31
0.0
  0
LINE
  5
B383
330
18
100
AcDbEntity
  8
01
100
AcDbLine
 10
5080.576339325641
 20
-148.9513617929539
 30
0.0
 11
5079.758788666461
 21
-149.8322211679539
 31
0.0
  0
LINE
  5
B384
330
18
100
AcDbEntity
  8
01
100
AcDbLine
 10
5079.758788666461
 20
-149.8322211679539
 30
0.0
 11
5079.03045614693
 21
-150.7882148202977
 31
0.0
  0
LINE
  5
B385
330
18
100
AcDbEntity
  8
01
100
AcDbLine
 10
5079.03045614693
 20
-150.7882148202977
 30
0.0
 11
5078.39585836861
 21
-151.8088752206883
 31
0.0
  0
LINE
  5
B386
330
18
100
AcDbEntity
  8
01
100
AcDbLine
 10
5078.39585836861
 20
-151.8088752206883
 30
0.0
 11
5077.858138642047
 21
-152.8837348398289
 31
0.0
  0
LINE
  5
B387
330
18
100
AcDbEntity
  8
01
100
AcDbLine
 10
5077.858138642047
 20
-152.8837348398289
 30
0.0
 11
5077.419540009235
 21
-154.0026923593602
 31
0.0
  0
LINE
  5
B388
330
18
100
AcDbEntity
  8
01
100
AcDbLine
 10
5077.419540009235
 20
-154.0026923593602
 30
0.0
 11
5077.081832489704
 21
-155.1561042245946
 31
0.0
  0
LINE
  5
B389
330
18
100
AcDbEntity
  8
01
100
AcDbLine
 10
5077.081832489704
 20
-155.1561042245946
 30
0.0
 11
5076.846740326618
 21
-156.3346930917821
 31
0.0
  0
LINE
  5
B38A
330
18
100
AcDbEntity
  8
01
100
AcDbLine
 10
5076.846740326618
 20
-156.3346930917821
 30
0.0
 11
5076.716323456501
 21
-157.5293342050633
 31
0.0
  0
LINE
  5
B38B
330
18
100
AcDbEntity
  8
01
100
AcDbLine
 10
5076.716323456501
 20
-157.5293342050633
 30
0.0
 11
5076.693130097126
 21
-158.7308417734227
 31
0.0
  0
LINE
  5
B38C
330
18
100
AcDbEntity
  8
01
100
AcDbLine
 10
5076.693130097126
 20
-158.7308417734227
 30
0.0
 11
5076.780425629352
 21
-159.9294196542821
 31
0.0
  0
LINE
  5
B38D
330
18
100
AcDbEntity
  8
01
100
AcDbLine
 10
5076.780425629352
 20
-159.9294196542821
 30
0.0
 11
5076.98196371529
 21
-161.1141120370946
 31
0.0
  0
LINE
  5
B38E
330
18
100
AcDbEntity
  8
01
100
AcDbLine
 10
5076.98196371529
 20
-161.1141120370946
 30
0.0
 11
5077.301665863727
 21
-162.2724982675633
 31
0.0
  0
LINE
  5
B38F
330
18
100
AcDbEntity
  8
01
100
AcDbLine
 10
5077.301665863727
 20
-162.2724982675633
 30
0.0
 11
5077.743117890094
 21
-163.3900824960789
 31
0.0
  0
LINE
  5
B390
330
18
100
AcDbEntity
  8
01
100
AcDbLine
 10
5077.743117890094
 20
-163.3900824960789
 30
0.0
 11
5078.308547577594
 21
-164.4502936777196
 31
0.0
  0
LINE
  5
B391
330
18
100
AcDbEntity
  8
01
100
AcDbLine
 10
5078.308547577594
 20
-164.4502936777196
 30
0.0
 11
5078.997451386188
 21
-165.4346381601414
 31
0.0
  0
LINE
  5
B392
330
18
100
AcDbEntity
  8
01
100
AcDbLine
 10
5078.997451386188
 20
-165.4346381601414
 30
0.0
 11
5079.805144867633
 21
-166.3239814218602
 31
0.0
  0
LINE
  5
B393
330
18
100
AcDbEntity
  8
01
100
AcDbLine
 10
5079.805144867633
 20
-166.3239814218602
 30
0.0
 11
5080.721694550251
 21
-167.1006537851414
 31
0.0
  0
LINE
  5
B394
330
18
100
AcDbEntity
  8
01
100
AcDbLine
 10
5080.721694550251
 20
-167.1006537851414
 30
0.0
 11
5081.731917938922
 21
-167.7508307870946
 31
0.0
  0
LINE
  5
B395
330
18
100
AcDbEntity
  8
01
100
AcDbLine
 10
5081.731917938922
 20
-167.7508307870946
 30
0.0
 11
5082.816878876422
 21
-168.2669135507664
 31
0.0
  0
LINE
  5
B396
330
18
100
AcDbEntity
  8
01
100
AcDbLine
 10
5082.816878876422
 20
-168.2669135507664
 30
0.0
 11
5083.956359467243
 21
-168.6480475839696
 31
0.0
  0
LINE
  5
B397
330
18
100
AcDbEntity
  8
01
100
AcDbLine
 10
5083.956359467243
 20
-168.6480475839696
 30
0.0
 11
5085.131408295368
 21
-168.8995734628758
 31
0.0
  0
LINE
  5
B398
330
18
100
AcDbEntity
  8
01
100
AcDbLine
 10
5085.131408295368
 20
-168.8995734628758
 30
0.0
 11
5086.325973114704
 21
-169.0309211191258
 31
0.0
  0
LINE
  5
B399
330
18
100
AcDbEntity
  8
01
100
AcDbLine
 10
5086.325973114704
 20
-169.0309211191258
 30
0.0
 11
5087.527618012165
 21
-169.0535956796727
 31
0.0
  0
LINE
  5
B39A
330
18
100
AcDbEntity
  8
01
100
AcDbLine
 10
5087.527618012165
 20
-169.0535956796727
 30
0.0
 11
5088.727294525836
 21
-168.9797431406102
 31
0.0
  0
LINE
  5
B39B
330
18
100
AcDbEntity
  8
01
100
AcDbLine
 10
5088.727294525836
 20
-168.9797431406102
 30
0.0
 11
5089.925414643024
 21
-168.8198005136571
 31
0.0
  0
LINE
  5
B39C
330
18
100
AcDbEntity
  8
01
100
AcDbLine
 10
4963.288174233173
 20
-288.2228607358422
 30
0.0
 11
4964.761227211688
 21
-288.9007410230126
 31
0.0
  0
LINE
  5
B39D
330
18
100
AcDbEntity
  8
01
100
AcDbLine
 10
4964.761227211688
 20
-288.9007410230126
 30
0.0
 11
4966.128883919452
 21
-289.5241121472802
 31
0.0
  0
LINE
  5
B39E
330
18
100
AcDbEntity
  8
01
100
AcDbLine
 10
4966.128883919452
 20
-289.5241121472802
 30
0.0
 11
4967.382496437763
 21
-290.0887688817467
 31
0.0
  0
LINE
  5
B39F
330
18
100
AcDbEntity
  8
01
100
AcDbLine
 10
4967.382496437763
 20
-290.0887688817467
 30
0.0
 11
4968.516300759052
 21
-290.591804903933
 31
0.0
  0
LINE
  5
B3A0
330
18
100
AcDbEntity
  8
01
100
AcDbLine
 10
4968.516300759052
 20
-290.591804903933
 30
0.0
 11
4969.528927407001
 21
-291.0325769605126
 31
0.0
  0
LINE
  5
B3A1
330
18
100
AcDbEntity
  8
01
100
AcDbLine
 10
4969.528927407001
 20
-291.0325769605126
 30
0.0
 11
4970.421150765155
 21
-291.4115685643639
 31
0.0
  0
LINE
  5
B3A2
330
18
100
AcDbEntity
  8
01
100
AcDbLine
 10
4970.421150765155
 20
-291.4115685643639
 30
0.0
 11
4971.195263466571
 21
-291.7297271909203
 31
0.0
  0
LINE
  5
B3A3
330
18
100
AcDbEntity
  8
01
100
AcDbLine
 10
4971.195263466571
 20
-291.7297271909203
 30
0.0
 11
4971.855286202167
 21
-291.9885491551842
 31
0.0
  0
LINE
  5
B3A4
330
18
100
AcDbEntity
  8
01
100
AcDbLine
 10
4971.855286202167
 20
-291.9885491551842
 30
0.0
 11
4972.406578621601
 21
-292.1903657140221
 31
0.0
  0
LINE
  5
B3A5
330
18
100
AcDbEntity
  8
01
100
AcDbLine
 10
4972.406578621601
 20
-292.1903657140221
 30
0.0
 11
4972.855938515399
 21
-292.3387612523522
 31
0.0
  0
LINE
  5
B3A6
330
18
100
AcDbEntity
  8
01
100
AcDbLine
 10
4972.855938515399
 20
-292.3387612523522
 30
0.0
 11
4973.213314614032
 21
-292.4387215795006
 31
0.0
  0
LINE
  5
B3A7
330
18
100
AcDbEntity
  8
01
100
AcDbLine
 10
4973.213314614032
 20
-292.4387215795006
 30
0.0
 11
4973.492970070575
 21
-292.4973334493126
 31
0.0
  0
LINE
  5
B3A8
330
18
100
AcDbEntity
  8
01
100
AcDbLine
 10
4973.492970070575
 20
-292.4973334493126
 30
0.0
 11
4973.711575112079
 21
-292.5235461415734
 31
0.0
  0
LINE
  5
B3A9
330
18
100
AcDbEntity
  8
01
100
AcDbLine
 10
4973.711575112079
 20
-292.5235461415734
 30
0.0
 11
4973.895374855731
 21
-292.5260724248375
 31
0.0
  0
LINE
  5
B3AA
330
18
100
AcDbEntity
  8
01
100
AcDbLine
 10
4973.911556801532
 20
-292.5261840047326
 30
0.0
 11
4974.251087746356
 21
-292.5307645024743
 31
0.0
  0
LINE
  5
B3AB
330
18
100
AcDbEntity
  8
01
100
AcDbLine
 10
4974.251087746356
 20
-292.5307645024743
 30
0.0
 11
4974.526142677997
 21
-292.5370854558434
 31
0.0
  0
LINE
  5
B3AC
330
18
100
AcDbEntity
  8
01
100
AcDbLine
 10
4974.526142677997
 20
-292.5370854558434
 30
0.0
 11
4974.748074135517
 21
-292.543058318087
 31
0.0
  0
LINE
  5
B3AD
330
18
100
AcDbEntity
  8
01
100
AcDbLine
 10
4974.748074135517
 20
-292.543058318087
 30
0.0
 11
4974.914433083271
 21
-292.5487364949669
 31
0.0
  0
LINE
  5
B3AE
330
18
100
AcDbEntity
  8
01
100
AcDbLine
 10
4974.914433083271
 20
-292.5487364949669
 30
0.0
 11
4975.023174843524
 21
-292.5545949162926
 31
0.0
  0
LINE
  5
B3AF
330
18
100
AcDbEntity
  8
01
100
AcDbLine
 10
4975.023174843524
 20
-292.5545949162926
 30
0.0
 11
4975.076817116474
 21
-292.5616711797203
 31
0.0
  0
LINE
  5
B3B0
330
18
100
AcDbEntity
  8
01
100
AcDbLine
 10
4973.911556801532
 20
-296.1295403661217
 30
0.0
 11
4974.251087746356
 21
-296.12495986838
 31
0.0
  0
LINE
  5
B3B1
330
18
100
AcDbEntity
  8
01
100
AcDbLine
 10
4974.251087746356
 20
-296.12495986838
 30
0.0
 11
4974.526142677997
 21
-296.1186398686852
 31
0.0
  0
LINE
  5
B3B2
330
18
100
AcDbEntity
  8
01
100
AcDbLine
 10
4974.526142677997
 20
-296.1186398686852
 30
0.0
 11
4974.748074135517
 21
-296.1126670064415
 31
0.0
  0
LINE
  5
B3B3
330
18
100
AcDbEntity
  8
01
100
AcDbLine
 10
4974.748074135517
 20
-296.1126670064415
 30
0.0
 11
4974.914433083271
 21
-296.106989783236
 31
0.0
  0
LINE
  5
B3B4
330
18
100
AcDbEntity
  8
01
100
AcDbLine
 10
4974.914433083271
 20
-296.106989783236
 30
0.0
 11
4975.023174843524
 21
-296.1011313619103
 31
0.0
  0
LINE
  5
B3B5
330
18
100
AcDbEntity
  8
01
100
AcDbLine
 10
4975.023174843524
 20
-296.1011313619103
 30
0.0
 11
4975.076817116474
 21
-296.0940560521569
 31
0.0
  0
LINE
  5
B3B6
330
18
100
AcDbEntity
  8
01
100
AcDbLine
 10
4963.288174233173
 20
-300.4328622045006
 30
0.0
 11
4964.761227211688
 21
-299.7549828710045
 31
0.0
  0
LINE
  5
B3B7
330
18
100
AcDbEntity
  8
01
100
AcDbLine
 10
4964.761227211688
 20
-299.7549828710045
 30
0.0
 11
4966.128883919452
 21
-299.131611746737
 31
0.0
  0
LINE
  5
B3B8
330
18
100
AcDbEntity
  8
01
100
AcDbLine
 10
4966.128883919452
 20
-299.131611746737
 30
0.0
 11
4967.38250025246
 21
-298.5669545354332
 31
0.0
  0
LINE
  5
B3B9
330
18
100
AcDbEntity
  8
01
100
AcDbLine
 10
4967.38250025246
 20
-298.5669545354332
 30
0.0
 11
4968.516300759052
 21
-298.0639180364098
 31
0.0
  0
LINE
  5
B3BA
330
18
100
AcDbEntity
  8
01
100
AcDbLine
 10
4968.516300759052
 20
-298.0639180364098
 30
0.0
 11
4969.528931221698
 21
-297.6231469335045
 31
0.0
  0
LINE
  5
B3BB
330
18
100
AcDbEntity
  8
01
100
AcDbLine
 10
4969.528931221698
 20
-297.6231469335045
 30
0.0
 11
4970.421150765155
 21
-297.2441548528161
 31
0.0
  0
LINE
  5
B3BC
330
18
100
AcDbEntity
  8
01
100
AcDbLine
 10
4970.421150765155
 20
-297.2441548528161
 30
0.0
 11
4971.195263466571
 21
-296.9259957494225
 31
0.0
  0
LINE
  5
B3BD
330
18
100
AcDbEntity
  8
01
100
AcDbLine
 10
4971.195263466571
 20
-296.9259957494225
 30
0.0
 11
4971.855286202167
 21
-296.6671742619957
 31
0.0
  0
LINE
  5
B3BE
330
18
100
AcDbEntity
  8
01
100
AcDbLine
 10
4971.855286202167
 20
-296.6671742619957
 30
0.0
 11
4972.406578621601
 21
-296.4653577031578
 31
0.0
  0
LINE
  5
B3BF
330
18
100
AcDbEntity
  8
01
100
AcDbLine
 10
4972.406578621601
 20
-296.4653577031578
 30
0.0
 11
4972.855938515399
 21
-296.3169621648278
 31
0.0
  0
LINE
  5
B3C0
330
18
100
AcDbEntity
  8
01
100
AcDbLine
 10
4972.855938515399
 20
-296.3169621648278
 30
0.0
 11
4973.213314614032
 21
-296.2170018376793
 31
0.0
  0
LINE
  5
B3C1
330
18
100
AcDbEntity
  8
01
100
AcDbLine
 10
4973.213314614032
 20
-296.2170018376793
 30
0.0
 11
4973.492970070575
 21
-296.1583899678673
 31
0.0
  0
LINE
  5
B3C2
330
18
100
AcDbEntity
  8
01
100
AcDbLine
 10
4973.492970070575
 20
-296.1583899678673
 30
0.0
 11
4973.711575112079
 21
-296.1321782292809
 31
0.0
  0
LINE
  5
B3C3
330
18
100
AcDbEntity
  8
01
100
AcDbLine
 10
4973.711575112079
 20
-296.1321782292809
 30
0.0
 11
4973.895374855731
 21
-296.1296509923424
 31
0.0
  0
LINE
  5
B3C4
330
18
100
AcDbEntity
  8
01
100
AcDbLine
 10
4963.756237587665
 20
-300.2207783879723
 30
0.0
 11
4964.024395546649
 21
-300.1096972646203
 31
0.0
  0
LINE
  5
B3C5
330
18
100
AcDbEntity
  8
01
100
AcDbLine
 10
4964.024395546649
 20
-300.1096972646203
 30
0.0
 11
4964.27792414162
 21
-300.006195944735
 31
0.0
  0
LINE
  5
B3C6
330
18
100
AcDbEntity
  8
01
100
AcDbLine
 10
4964.27792414162
 20
-300.006195944735
 30
0.0
 11
4964.458622536396
 21
-299.9335946263756
 31
0.0
  0
LINE
  5
B3C7
330
18
100
AcDbEntity
  8
01
100
AcDbLine
 10
4964.458622536396
 20
-299.9335946263756
 30
0.0
 11
4964.537682137226
 21
-299.9024275960412
 31
0.0
  0
LINE
  5
B3C8
330
18
100
AcDbEntity
  8
01
100
AcDbLine
 10
4964.537682137226
 20
-299.9024275960412
 30
0.0
 11
4964.600361427997
 21
-299.8782529057946
 31
0.0
  0
LINE
  5
B3C9
330
18
100
AcDbEntity
  8
01
100
AcDbLine
 10
4964.600361427997
 20
-299.8782529057946
 30
0.0
 11
4964.623444161151
 21
-299.869531554171
 31
0.0
  0
LINE
  5
B3CA
330
18
100
AcDbEntity
  8
01
100
AcDbLine
 10
4964.185417732929
 20
-300.0338811101403
 30
0.0
 11
4964.173199257587
 21
-300.0396012486901
 31
0.0
  0
LINE
  5
B3CB
330
18
100
AcDbEntity
  8
01
100
AcDbLine
 10
4964.173199257587
 20
-300.0396012486901
 30
0.0
 11
4964.1348157737
 21
-300.0565747441735
 31
0.0
  0
LINE
  5
B3CC
330
18
100
AcDbEntity
  8
01
100
AcDbLine
 10
4964.1348157737
 20
-300.0565747441735
 30
0.0
 11
4964.068138680194
 21
-300.085637968966
 31
0.0
  0
LINE
  5
B3CD
330
18
100
AcDbEntity
  8
01
100
AcDbLine
 10
4964.068138680194
 20
-300.085637968966
 30
0.0
 11
4963.971043190692
 21
-300.127630156466
 31
0.0
  0
LINE
  5
B3CE
330
18
100
AcDbEntity
  8
01
100
AcDbLine
 10
4963.971043190692
 20
-300.127630156466
 30
0.0
 11
4963.841911873554
 21
-300.1831702413048
 31
0.0
  0
LINE
  5
B3CF
330
18
100
AcDbEntity
  8
01
100
AcDbLine
 10
4963.841911873554
 20
-300.1831702413048
 30
0.0
 11
4963.668640694355
 21
-300.2572392644371
 31
0.0
  0
LINE
  5
B3D0
330
18
100
AcDbEntity
  8
01
100
AcDbLine
 10
4964.463062844013
 20
-299.931829375216
 30
0.0
 11
4964.631420693134
 21
-299.88805286307
 31
0.0
  0
LINE
  5
B3D1
330
18
100
AcDbEntity
  8
01
100
AcDbLine
 10
4964.631420693134
 20
-299.88805286307
 30
0.0
 11
4964.888962349628
 21
-299.822584074923
 31
0.0
  0
LINE
  5
B3D2
330
18
100
AcDbEntity
  8
01
100
AcDbLine
 10
4964.888962349628
 20
-299.822584074923
 30
0.0
 11
4965.251545510028
 21
-299.7308425130333
 31
0.0
  0
LINE
  5
B3D3
330
18
100
AcDbEntity
  8
01
100
AcDbLine
 10
4965.251545510028
 20
-299.7308425130333
 30
0.0
 11
4965.732021889423
 21
-299.6069611730065
 31
0.0
  0
LINE
  5
B3D4
330
18
100
AcDbEntity
  8
01
100
AcDbLine
 10
4965.732021889423
 20
-299.6069611730065
 30
0.0
 11
4966.33575113747
 21
-299.4441565694298
 31
0.0
  0
LINE
  5
B3D5
330
18
100
AcDbEntity
  8
01
100
AcDbLine
 10
4966.33575113747
 20
-299.4441565694298
 30
0.0
 11
4967.051769814228
 21
-299.2376393498864
 31
0.0
  0
LINE
  5
B3D6
330
18
100
AcDbEntity
  8
01
100
AcDbLine
 10
4967.051769814228
 20
-299.2376393498864
 30
0.0
 11
4967.845055184101
 21
-298.9892825307335
 31
0.0
  0
LINE
  5
B3D7
330
18
100
AcDbEntity
  8
01
100
AcDbLine
 10
4967.845055184101
 20
-298.9892825307335
 30
0.0
 11
4968.657578072284
 21
-298.7120770635094
 31
0.0
  0
LINE
  5
B3D8
330
18
100
AcDbEntity
  8
01
100
AcDbLine
 10
4968.657578072284
 20
-298.7120770635094
 30
0.0
 11
4969.514854988788
 21
-298.3937539281334
 31
0.0
  0
LINE
  5
B3D9
330
18
100
AcDbEntity
  8
01
100
AcDbLine
 10
4963.309616646503
 20
-300.4229573430504
 30
0.0
 11
4963.56197794411
 21
-300.3078526677575
 31
0.0
  0
LINE
  5
B3DA
330
18
100
AcDbEntity
  8
01
100
AcDbLine
 10
4963.56197794411
 20
-300.3078526677575
 30
0.0
 11
4963.790375313495
 21
-300.2056054295983
 31
0.0
  0
LINE
  5
B3DB
330
18
100
AcDbEntity
  8
01
100
AcDbLine
 10
4963.790375313495
 20
-300.2056054295983
 30
0.0
 11
4963.979755959247
 21
-300.1221560658898
 31
0.0
  0
LINE
  5
B3DC
330
18
100
AcDbEntity
  8
01
100
AcDbLine
 10
4963.979755959247
 20
-300.1221560658898
 30
0.0
 11
4964.115074715351
 21
-300.0634450139489
 31
0.0
  0
LINE
  5
B3DD
330
18
100
AcDbEntity
  8
01
100
AcDbLine
 10
4964.115074715351
 20
-300.0634450139489
 30
0.0
 11
4964.185417732929
 21
-300.0338811101403
 31
0.0
  0
LINE
  5
B3DE
330
18
100
AcDbEntity
  8
01
100
AcDbLine
 10
4971.088444313739
 20
-290.911939543673
 30
0.0
 11
4971.286194405292
 21
-290.9895300092186
 31
0.0
  0
LINE
  5
B3DF
330
18
100
AcDbEntity
  8
01
100
AcDbLine
 10
4971.286194405292
 20
-290.9895300092186
 30
0.0
 11
4971.565098366474
 21
-291.100069445559
 31
0.0
  0
LINE
  5
B3E0
330
18
100
AcDbEntity
  8
01
100
AcDbLine
 10
4971.565098366474
 20
-291.100069445559
 30
0.0
 11
4971.901733956073
 21
-291.2352275075402
 31
0.0
  0
LINE
  5
B3E1
330
18
100
AcDbEntity
  8
01
100
AcDbLine
 10
4971.901733956073
 20
-291.2352275075402
 30
0.0
 11
4972.257687172626
 21
-291.3799184979882
 31
0.0
  0
LINE
  5
B3E2
330
18
100
AcDbEntity
  8
01
100
AcDbLine
 10
4972.257687172626
 20
-291.3799184979882
 30
0.0
 11
4972.614624581073
 21
-291.5264190854516
 31
0.0
  0
LINE
  5
B3E3
330
18
100
AcDbEntity
  8
01
100
AcDbLine
 10
4972.614624581073
 20
-291.5264190854516
 30
0.0
 11
4972.962307533954
 21
-291.6701568784203
 31
0.0
  0
LINE
  5
B3E4
330
18
100
AcDbEntity
  8
01
100
AcDbLine
 10
4972.962307533954
 20
-291.6701568784203
 30
0.0
 11
4973.296207985614
 21
-291.8089632214989
 31
0.0
  0
LINE
  5
B3E5
330
18
100
AcDbEntity
  8
01
100
AcDbLine
 10
4973.296207985614
 20
-291.8089632214989
 30
0.0
 11
4973.615933022235
 21
-291.9424866857018
 31
0.0
  0
LINE
  5
B3E6
330
18
100
AcDbEntity
  8
01
100
AcDbLine
 10
4973.615933022235
 20
-291.9424866857018
 30
0.0
 11
4973.920849404071
 21
-292.0703701199974
 31
0.0
  0
LINE
  5
B3E7
330
18
100
AcDbEntity
  8
01
100
AcDbLine
 10
4973.920849404071
 20
-292.0703701199974
 30
0.0
 11
4974.217732033466
 21
-292.1954535665001
 31
0.0
  0
LINE
  5
B3E8
330
18
100
AcDbEntity
  8
01
100
AcDbLine
 10
4974.217732033466
 20
-292.1954535665001
 30
0.0
 11
4974.504559120868
 21
-292.3168744267907
 31
0.0
  0
LINE
  5
B3E9
330
18
100
AcDbEntity
  8
01
100
AcDbLine
 10
4974.504559120868
 20
-292.3168744267907
 30
0.0
 11
4974.786816200946
 21
-292.4372195424523
 31
0.0
  0
LINE
  5
B3EA
330
18
100
AcDbEntity
  8
01
100
AcDbLine
 10
4974.786816200946
 20
-292.4372195424523
 30
0.0
 11
4975.075916847919
 21
-292.5611972035851
 31
0.0
  0
LINE
  5
B3EB
330
18
100
AcDbEntity
  8
01
100
AcDbLine
 10
4969.567165932392
 20
-290.2822593869652
 30
0.0
 11
4970.003716072772
 21
-290.4551371755089
 31
0.0
  0
LINE
  5
B3EC
330
18
100
AcDbEntity
  8
01
100
AcDbLine
 10
4970.003716072772
 20
-290.4551371755089
 30
0.0
 11
4970.428577980731
 21
-290.6297067822899
 31
0.0
  0
LINE
  5
B3ED
330
18
100
AcDbEntity
  8
01
100
AcDbLine
 10
4970.428577980731
 20
-290.6297067822899
 30
0.0
 11
4970.760731301044
 21
-290.7703999700036
 31
0.0
  0
LINE
  5
B3EE
330
18
100
AcDbEntity
  8
01
100
AcDbLine
 10
4970.760731301044
 20
-290.7703999700036
 30
0.0
 11
4970.975693306659
 21
-290.8630847157921
 31
0.0
  0
LINE
  5
B3EF
330
18
100
AcDbEntity
  8
01
100
AcDbLine
 10
4970.975693306659
 20
-290.8630847157921
 30
0.0
 11
4971.098442635272
 21
-290.9162692250695
 31
0.0
  0
LINE
  5
B3F0
330
18
100
AcDbEntity
  8
01
100
AcDbLine
 10
4971.098442635272
 20
-290.9162692250695
 30
0.0
 11
4971.158409676288
 21
-290.942185801455
 31
0.0
  0
LINE
  5
B3F1
330
18
100
AcDbEntity
  8
01
100
AcDbLine
 10
4971.158409676288
 20
-290.942185801455
 30
0.0
 11
4971.176895699237
 21
-290.9501213254418
 31
0.0
  0
LINE
  5
B3F2
330
18
100
AcDbEntity
  8
01
100
AcDbLine
 10
4963.756237587665
 20
-288.4349455060448
 30
0.0
 11
4964.024395546649
 21
-288.5460266293969
 31
0.0
  0
LINE
  5
B3F3
330
18
100
AcDbEntity
  8
01
100
AcDbLine
 10
4964.024395546649
 20
-288.5460266293969
 30
0.0
 11
4964.27792414162
 21
-288.6495279492821
 31
0.0
  0
LINE
  5
B3F4
330
18
100
AcDbEntity
  8
01
100
AcDbLine
 10
4964.27792414162
 20
-288.6495279492821
 30
0.0
 11
4964.458622536396
 21
-288.7221287908043
 31
0.0
  0
LINE
  5
B3F5
330
18
100
AcDbEntity
  8
01
100
AcDbLine
 10
4964.458622536396
 20
-288.7221287908043
 30
0.0
 11
4964.537682137226
 21
-288.753296297976
 31
0.0
  0
LINE
  5
B3F6
330
18
100
AcDbEntity
  8
01
100
AcDbLine
 10
4964.537682137226
 20
-288.753296297976
 30
0.0
 11
4964.600361427997
 21
-288.7774709882225
 31
0.0
  0
LINE
  5
B3F7
330
18
100
AcDbEntity
  8
01
100
AcDbLine
 10
4964.600361427997
 20
-288.7774709882225
 30
0.0
 11
4964.623444161151
 21
-288.7861923398461
 31
0.0
  0
LINE
  5
B3F8
330
18
100
AcDbEntity
  8
01
100
AcDbLine
 10
4964.185413918231
 20
-288.6218427838768
 30
0.0
 11
4964.173199257587
 21
-288.6161221684899
 31
0.0
  0
LINE
  5
B3F9
330
18
100
AcDbEntity
  8
01
100
AcDbLine
 10
4964.173199257587
 20
-288.6161221684899
 30
0.0
 11
4964.1348157737
 21
-288.5991491498436
 31
0.0
  0
LINE
  5
B3FA
330
18
100
AcDbEntity
  8
01
100
AcDbLine
 10
4964.1348157737
 20
-288.5991491498436
 30
0.0
 11
4964.068138680194
 21
-288.5700859250512
 31
0.0
  0
LINE
  5
B3FB
330
18
100
AcDbEntity
  8
01
100
AcDbLine
 10
4964.068138680194
 20
-288.5700859250512
 30
0.0
 11
4963.971043190692
 21
-288.528093260714
 31
0.0
  0
LINE
  5
B3FC
330
18
100
AcDbEntity
  8
01
100
AcDbLine
 10
4963.971043190692
 20
-288.528093260714
 30
0.0
 11
4963.841908058856
 21
-288.4725536527123
 31
0.0
  0
LINE
  5
B3FD
330
18
100
AcDbEntity
  8
01
100
AcDbLine
 10
4963.841908058856
 20
-288.4725536527123
 30
0.0
 11
4963.668636879657
 21
-288.3984851064171
 31
0.0
  0
LINE
  5
B3FE
330
18
100
AcDbEntity
  8
01
100
AcDbLine
 10
4964.463062844013
 20
-288.7238954724755
 30
0.0
 11
4964.631420693134
 21
-288.7676724614586
 31
0.0
  0
LINE
  5
B3FF
330
18
100
AcDbEntity
  8
01
100
AcDbLine
 10
4964.631420693134
 20
-288.7676724614586
 30
0.0
 11
4964.888962349628
 21
-288.8331412496056
 31
0.0
  0
LINE
  5
B400
330
18
100
AcDbEntity
  8
01
100
AcDbLine
 10
4964.888962349628
 20
-288.8331412496056
 30
0.0
 11
4965.251545510028
 21
-288.9248823346581
 31
0.0
  0
LINE
  5
B401
330
18
100
AcDbEntity
  8
01
100
AcDbLine
 10
4965.251545510028
 20
-288.9248823346581
 30
0.0
 11
4965.732021889423
 21
-289.0487646283593
 31
0.0
  0
LINE
  5
B402
330
18
100
AcDbEntity
  8
01
100
AcDbLine
 10
4965.732021889423
 20
-289.0487646283593
 30
0.0
 11
4966.33575113747
 21
-289.2115687550988
 31
0.0
  0
LINE
  5
B403
330
18
100
AcDbEntity
  8
01
100
AcDbLine
 10
4966.33575113747
 20
-289.2115687550988
 30
0.0
 11
4967.051769814228
 21
-289.4180854978051
 31
0.0
  0
LINE
  5
B404
330
18
100
AcDbEntity
  8
01
100
AcDbLine
 10
4967.051769814228
 20
-289.4180854978051
 30
0.0
 11
4967.845051369403
 21
-289.6664423169579
 31
0.0
  0
LINE
  5
B405
330
18
100
AcDbEntity
  8
01
100
AcDbLine
 10
4967.845051369403
 20
-289.6664423169579
 30
0.0
 11
4968.657578072284
 21
-289.9436482610192
 31
0.0
  0
LINE
  5
B406
330
18
100
AcDbEntity
  8
01
100
AcDbLine
 10
4968.657578072284
 20
-289.9436482610192
 30
0.0
 11
4969.514854988788
 21
-290.2619713963952
 31
0.0
  0
LINE
  5
B407
330
18
100
AcDbEntity
  8
01
100
AcDbLine
 10
4963.309612831806
 20
-288.2327665509667
 30
0.0
 11
4963.56197794411
 21
-288.3478702725853
 31
0.0
  0
LINE
  5
B408
330
18
100
AcDbEntity
  8
01
100
AcDbLine
 10
4963.56197794411
 20
-288.3478702725853
 30
0.0
 11
4963.790375313495
 21
-288.4501179875817
 31
0.0
  0
LINE
  5
B409
330
18
100
AcDbEntity
  8
01
100
AcDbLine
 10
4963.790375313495
 20
-288.4501179875817
 30
0.0
 11
4963.979755959247
 21
-288.5335678281273
 31
0.0
  0
LINE
  5
B40A
330
18
100
AcDbEntity
  8
01
100
AcDbLine
 10
4963.979755959247
 20
-288.5335678281273
 30
0.0
 11
4964.115070900653
 21
-288.5922784032311
 31
0.0
  0
LINE
  5
B40B
330
18
100
AcDbEntity
  8
01
100
AcDbLine
 10
4964.115070900653
 20
-288.5922784032311
 30
0.0
 11
4964.185413918231
 21
-288.6218427838768
 31
0.0
  0
LINE
  5
B40C
330
18
100
AcDbEntity
  8
01
100
AcDbLine
 10
4917.687907776569
 20
-269.327876967379
 30
0.0
 11
4920.349284729694
 21
-269.3925074758019
 31
0.0
  0
LINE
  5
B40D
330
18
100
AcDbEntity
  8
01
100
AcDbLine
 10
4920.349284729694
 20
-269.3925074758019
 30
0.0
 11
4923.01933821175
 21
-269.4833840550866
 31
0.0
  0
LINE
  5
B40E
330
18
100
AcDbEntity
  8
01
100
AcDbLine
 10
4963.288174233173
 20
-288.2228607358422
 30
0.0
 11
4961.656014046405
 21
-287.4658366860833
 31
0.0
  0
LINE
  5
B40F
330
18
100
AcDbEntity
  8
01
100
AcDbLine
 10
4961.656014046405
 20
-287.4658366860833
 30
0.0
 11
4959.936409554218
 21
-286.66309110541
 31
0.0
  0
LINE
  5
B410
330
18
100
AcDbEntity
  8
01
100
AcDbLine
 10
4959.936409554218
 20
-286.66309110541
 30
0.0
 11
4958.14780481789
 21
-285.8238645019021
 31
0.0
  0
LINE
  5
B411
330
18
100
AcDbEntity
  8
01
100
AcDbLine
 10
4958.14780481789
 20
-285.8238645019021
 30
0.0
 11
4956.307926735614
 21
-284.9571114601578
 31
0.0
  0
LINE
  5
B412
330
18
100
AcDbEntity
  8
01
100
AcDbLine
 10
4956.307926735614
 20
-284.9571114601578
 30
0.0
 11
4954.432892403339
 21
-284.0712395133461
 31
0.0
  0
LINE
  5
B413
330
18
100
AcDbEntity
  8
01
100
AcDbLine
 10
4954.432892403339
 20
-284.0712395133461
 30
0.0
 11
4952.536991677021
 21
-283.1733123483147
 31
0.0
  0
LINE
  5
B414
330
18
100
AcDbEntity
  8
01
100
AcDbLine
 10
4952.536991677021
 20
-283.1733123483147
 30
0.0
 11
4950.631901344989
 21
-282.2689136685814
 31
0.0
  0
LINE
  5
B415
330
18
100
AcDbEntity
  8
01
100
AcDbLine
 10
4950.631901344989
 20
-282.2689136685814
 30
0.0
 11
4948.726521095966
 21
-281.3633403005089
 31
0.0
  0
LINE
  5
B416
330
18
100
AcDbEntity
  8
01
100
AcDbLine
 10
4948.726521095966
 20
-281.3633403005089
 30
0.0
 11
4946.828655800556
 21
-280.4592115106072
 31
0.0
  0
LINE
  5
B417
330
18
100
AcDbEntity
  8
01
100
AcDbLine
 10
4946.828655800556
 20
-280.4592115106072
 30
0.0
 11
4944.942234596942
 21
-279.5579179944481
 31
0.0
  0
LINE
  5
B418
330
18
100
AcDbEntity
  8
01
100
AcDbLine
 10
4944.942234596942
 20
-279.5579179944481
 30
0.0
 11
4943.069622597431
 21
-278.6593512715783
 31
0.0
  0
LINE
  5
B419
330
18
100
AcDbEntity
  8
01
100
AcDbLine
 10
4943.069622597431
 20
-278.6593512715783
 30
0.0
 11
4941.219612679218
 21
-277.7607311429467
 31
0.0
  0
LINE
  5
B41A
330
18
100
AcDbEntity
  8
01
100
AcDbLine
 10
4941.219612679218
 20
-277.7607311429467
 30
0.0
 11
4939.400904259418
 21
-276.8635071935143
 31
0.0
  0
LINE
  5
B41B
330
18
100
AcDbEntity
  8
01
100
AcDbLine
 10
4939.400904259418
 20
-276.8635071935143
 30
0.0
 11
4937.621262154315
 21
-275.9726094426598
 31
0.0
  0
LINE
  5
B41C
330
18
100
AcDbEntity
  8
01
100
AcDbLine
 10
4937.621262154315
 20
-275.9726094426598
 30
0.0
 11
4935.888678154682
 21
-275.0961617650475
 31
0.0
  0
LINE
  5
B41D
330
18
100
AcDbEntity
  8
01
100
AcDbLine
 10
4935.888678154682
 20
-275.0961617650475
 30
0.0
 11
4934.212973198627
 21
-274.2422188939537
 31
0.0
  0
LINE
  5
B41E
330
18
100
AcDbEntity
  8
01
100
AcDbLine
 10
4934.212973198627
 20
-274.2422188939537
 30
0.0
 11
4932.604643425678
 21
-273.4204692067589
 31
0.0
  0
LINE
  5
B41F
330
18
100
AcDbEntity
  8
01
100
AcDbLine
 10
4932.604643425678
 20
-273.4204692067589
 30
0.0
 11
4931.074232659076
 21
-272.6424769582238
 31
0.0
  0
LINE
  5
B420
330
18
100
AcDbEntity
  8
01
100
AcDbLine
 10
4931.074232659076
 20
-272.6424769582238
 30
0.0
 11
4929.631622872089
 21
-271.920743864962
 31
0.0
  0
LINE
  5
B421
330
18
100
AcDbEntity
  8
01
100
AcDbLine
 10
4929.631622872089
 20
-271.920743864962
 30
0.0
 11
4928.286268791889
 21
-271.2679633321251
 31
0.0
  0
LINE
  5
B422
330
18
100
AcDbEntity
  8
01
100
AcDbLine
 10
4928.286268791889
 20
-271.2679633321251
 30
0.0
 11
4927.043558678363
 21
-270.6967171849694
 31
0.0
  0
LINE
  5
B423
330
18
100
AcDbEntity
  8
01
100
AcDbLine
 10
4927.043558678363
 20
-270.6967171849694
 30
0.0
 11
4925.905279717182
 21
-270.2194470586266
 31
0.0
  0
LINE
  5
B424
330
18
100
AcDbEntity
  8
01
100
AcDbLine
 10
4925.905279717182
 20
-270.2194470586266
 30
0.0
 11
4924.867817482685
 21
-269.8482178868737
 31
0.0
  0
LINE
  5
B425
330
18
100
AcDbEntity
  8
01
100
AcDbLine
 10
4924.867817482685
 20
-269.8482178868737
 30
0.0
 11
4923.918223938678
 21
-269.5961951436486
 31
0.0
  0
LINE
  5
B426
330
18
100
AcDbEntity
  8
01
100
AcDbLine
 10
4923.918223938678
 20
-269.5961951436486
 30
0.0
 11
4923.01932295296
 21
-269.4833754720177
 31
0.0
  0
LINE
  5
B427
330
18
100
AcDbEntity
  8
01
100
AcDbLine
 10
4971.088444313739
 20
-297.7437867345299
 30
0.0
 11
4971.286194405292
 21
-297.6661957921471
 31
0.0
  0
LINE
  5
B428
330
18
100
AcDbEntity
  8
01
100
AcDbLine
 10
4971.286194405292
 20
-297.6661957921471
 30
0.0
 11
4971.565098366474
 21
-297.5556563558068
 31
0.0
  0
LINE
  5
B429
330
18
100
AcDbEntity
  8
01
100
AcDbLine
 10
4971.565098366474
 20
-297.5556563558068
 30
0.0
 11
4971.901733956073
 21
-297.4204987706627
 31
0.0
  0
LINE
  5
B42A
330
18
100
AcDbEntity
  8
01
100
AcDbLine
 10
4971.901733956073
 20
-297.4204987706627
 30
0.0
 11
4972.257687172626
 21
-297.2758082570519
 31
0.0
  0
LINE
  5
B42B
330
18
100
AcDbEntity
  8
01
100
AcDbLine
 10
4972.257687172626
 20
-297.2758082570519
 30
0.0
 11
4972.614628395771
 21
-297.1293067159142
 31
0.0
  0
LINE
  5
B42C
330
18
100
AcDbEntity
  8
01
100
AcDbLine
 10
4972.614628395771
 20
-297.1293067159142
 30
0.0
 11
4972.962307533954
 21
-296.9855698766198
 31
0.0
  0
LINE
  5
B42D
330
18
100
AcDbEntity
  8
01
100
AcDbLine
 10
4972.962307533954
 20
-296.9855698766198
 30
0.0
 11
4973.296207985614
 21
-296.8467635335412
 31
0.0
  0
LINE
  5
B42E
330
18
100
AcDbEntity
  8
01
100
AcDbLine
 10
4973.296207985614
 20
-296.8467635335412
 30
0.0
 11
4973.615933022235
 21
-296.7132395925011
 31
0.0
  0
LINE
  5
B42F
330
18
100
AcDbEntity
  8
01
100
AcDbLine
 10
4973.615933022235
 20
-296.7132395925011
 30
0.0
 11
4973.920849404071
 21
-296.5853566350426
 31
0.0
  0
LINE
  5
B430
330
18
100
AcDbEntity
  8
01
100
AcDbLine
 10
4973.920849404071
 20
-296.5853566350426
 30
0.0
 11
4974.217732033466
 21
-296.4602727117028
 31
0.0
  0
LINE
  5
B431
330
18
100
AcDbEntity
  8
01
100
AcDbLine
 10
4974.217732033466
 20
-296.4602727117028
 30
0.0
 11
4974.504559120868
 21
-296.3388528050866
 31
0.0
  0
LINE
  5
B432
330
18
100
AcDbEntity
  8
01
100
AcDbLine
 10
4974.504559120868
 20
-296.3388528050866
 30
0.0
 11
4974.786816200946
 21
-296.2185067357506
 31
0.0
  0
LINE
  5
B433
330
18
100
AcDbEntity
  8
01
100
AcDbLine
 10
4974.786816200946
 20
-296.2185067357506
 30
0.0
 11
4975.075916847919
 21
-296.0945290746178
 31
0.0
  0
LINE
  5
B434
330
18
100
AcDbEntity
  8
01
100
AcDbLine
 10
4969.567165932392
 20
-298.3734654607262
 30
0.0
 11
4970.003716072772
 21
-298.2005881490197
 31
0.0
  0
LINE
  5
B435
330
18
100
AcDbEntity
  8
01
100
AcDbLine
 10
4970.003716072772
 20
-298.2005881490197
 30
0.0
 11
4970.428577980731
 21
-298.0260180654015
 31
0.0
  0
LINE
  5
B436
330
18
100
AcDbEntity
  8
01
100
AcDbLine
 10
4970.428577980731
 20
-298.0260180654015
 30
0.0
 11
4970.760731301044
 21
-297.885325354525
 31
0.0
  0
LINE
  5
B437
330
18
100
AcDbEntity
  8
01
100
AcDbLine
 10
4970.760731301044
 20
-297.885325354525
 30
0.0
 11
4970.975693306659
 21
-297.7926406087365
 31
0.0
  0
LINE
  5
B438
330
18
100
AcDbEntity
  8
01
100
AcDbLine
 10
4970.975693306659
 20
-297.7926406087365
 30
0.0
 11
4971.09844644997
 21
-297.7394560994591
 31
0.0
  0
LINE
  5
B439
330
18
100
AcDbEntity
  8
01
100
AcDbLine
 10
4971.09844644997
 20
-297.7394560994591
 30
0.0
 11
4971.158409676288
 21
-297.7135390462365
 31
0.0
  0
LINE
  5
B43A
330
18
100
AcDbEntity
  8
01
100
AcDbLine
 10
4971.158409676288
 20
-297.7135390462365
 30
0.0
 11
4971.176895699237
 21
-297.7056035222496
 31
0.0
  0
LINE
  5
B43B
330
18
100
AcDbEntity
  8
01
100
AcDbLine
 10
4917.687911591266
 20
-319.3278550328698
 30
0.0
 11
4920.349289498065
 21
-319.2632264317955
 31
0.0
  0
LINE
  5
B43C
330
18
100
AcDbEntity
  8
01
100
AcDbLine
 10
4920.349289498065
 20
-319.2632264317955
 30
0.0
 11
4923.019342026447
 21
-319.1723488988366
 31
0.0
  0
LINE
  5
B43D
330
18
100
AcDbEntity
  8
01
100
AcDbLine
 10
4963.288174233173
 20
-300.4328622045006
 30
0.0
 11
4961.656014046405
 21
-301.1898869695153
 31
0.0
  0
LINE
  5
B43E
330
18
100
AcDbEntity
  8
01
100
AcDbLine
 10
4961.656014046405
 20
-301.1898869695153
 30
0.0
 11
4959.936413368915
 21
-301.9926327886071
 31
0.0
  0
LINE
  5
B43F
330
18
100
AcDbEntity
  8
01
100
AcDbLine
 10
4959.936413368915
 20
-301.9926327886071
 30
0.0
 11
4958.147808632587
 21
-302.8318604649989
 31
0.0
  0
LINE
  5
B440
330
18
100
AcDbEntity
  8
01
100
AcDbLine
 10
4958.147808632587
 20
-302.8318604649989
 30
0.0
 11
4956.307926735614
 21
-303.6986130895106
 31
0.0
  0
LINE
  5
B441
330
18
100
AcDbEntity
  8
01
100
AcDbLine
 10
4956.307926735614
 20
-303.6986130895106
 30
0.0
 11
4954.432892403339
 21
-304.5844849767176
 31
0.0
  0
LINE
  5
B442
330
18
100
AcDbEntity
  8
01
100
AcDbLine
 10
4954.432892403339
 20
-304.5844849767176
 30
0.0
 11
4952.536991677021
 21
-305.4824132146327
 31
0.0
  0
LINE
  5
B443
330
18
100
AcDbEntity
  8
01
100
AcDbLine
 10
4952.536991677021
 20
-305.4824132146327
 30
0.0
 11
4950.631905159687
 21
-306.3868111791102
 31
0.0
  0
LINE
  5
B444
330
18
100
AcDbEntity
  8
01
100
AcDbLine
 10
4950.631905159687
 20
-306.3868111791102
 30
0.0
 11
4948.726521095966
 21
-307.2923859776942
 31
0.0
  0
LINE
  5
B445
330
18
100
AcDbEntity
  8
01
100
AcDbLine
 10
4948.726521095966
 20
-307.2923859776942
 30
0.0
 11
4946.828659615253
 21
-308.1965150060145
 31
0.0
  0
LINE
  5
B446
330
18
100
AcDbEntity
  8
01
100
AcDbLine
 10
4946.828659615253
 20
-308.1965150060145
 30
0.0
 11
4944.94223841164
 21
-309.0978078069178
 31
0.0
  0
LINE
  5
B447
330
18
100
AcDbEntity
  8
01
100
AcDbLine
 10
4944.94223841164
 20
-309.0978078069178
 30
0.0
 11
4943.069622597431
 21
-309.9963750066249
 31
0.0
  0
LINE
  5
B448
330
18
100
AcDbEntity
  8
01
100
AcDbLine
 10
4943.069622597431
 20
-309.9963750066249
 30
0.0
 11
4941.219616493915
 21
-310.8949956120936
 31
0.0
  0
LINE
  5
B449
330
18
100
AcDbEntity
  8
01
100
AcDbLine
 10
4941.219616493915
 20
-310.8949956120936
 30
0.0
 11
4939.400908074115
 21
-311.7922200383632
 31
0.0
  0
LINE
  5
B44A
330
18
100
AcDbEntity
  8
01
100
AcDbLine
 10
4939.400908074115
 20
-311.7922200383632
 30
0.0
 11
4937.621264061664
 21
-312.6831177892176
 31
0.0
  0
LINE
  5
B44B
330
18
100
AcDbEntity
  8
01
100
AcDbLine
 10
4937.621264061664
 20
-312.6831177892176
 30
0.0
 11
4935.888681969379
 21
-313.5595673741786
 31
0.0
  0
LINE
  5
B44C
330
18
100
AcDbEntity
  8
01
100
AcDbLine
 10
4935.888681969379
 20
-313.5595673741786
 30
0.0
 11
4934.212977013324
 21
-314.4135102452723
 31
0.0
  0
LINE
  5
B44D
330
18
100
AcDbEntity
  8
01
100
AcDbLine
 10
4934.212977013324
 20
-314.4135102452723
 30
0.0
 11
4932.604647240375
 21
-315.2352608861415
 31
0.0
  0
LINE
  5
B44E
330
18
100
AcDbEntity
  8
01
100
AcDbLine
 10
4932.604647240375
 20
-315.2352608861415
 30
0.0
 11
4931.074236473773
 21
-316.0132531346766
 31
0.0
  0
LINE
  5
B44F
330
18
100
AcDbEntity
  8
01
100
AcDbLine
 10
4931.074236473773
 20
-316.0132531346766
 30
0.0
 11
4929.631628594135
 21
-316.7349862279384
 31
0.0
  0
LINE
  5
B450
330
18
100
AcDbEntity
  8
01
100
AcDbLine
 10
4929.631628594135
 20
-316.7349862279384
 30
0.0
 11
4928.286272606586
 21
-317.3877648534266
 31
0.0
  0
LINE
  5
B451
330
18
100
AcDbEntity
  8
01
100
AcDbLine
 10
4928.286272606586
 20
-317.3877648534266
 30
0.0
 11
4927.043562493061
 21
-317.9590119542567
 31
0.0
  0
LINE
  5
B452
330
18
100
AcDbEntity
  8
01
100
AcDbLine
 10
4927.043562493061
 20
-317.9590119542567
 30
0.0
 11
4925.905283531879
 21
-318.4362839879479
 31
0.0
  0
LINE
  5
B453
330
18
100
AcDbEntity
  8
01
100
AcDbLine
 10
4925.905283531879
 20
-318.4362839879479
 30
0.0
 11
4924.867821297382
 21
-318.8075150670495
 31
0.0
  0
LINE
  5
B454
330
18
100
AcDbEntity
  8
01
100
AcDbLine
 10
4924.867821297382
 20
-318.8075150670495
 30
0.0
 11
4923.91822870705
 21
-319.0595368566002
 31
0.0
  0
LINE
  5
B455
330
18
100
AcDbEntity
  8
01
100
AcDbLine
 10
4923.91822870705
 20
-319.0595368566002
 30
0.0
 11
4923.019327721332
 21
-319.1723565282311
 31
0.0
  0
LINE
  5
B456
330
18
100
AcDbEntity
  8
01
100
AcDbLine
 10
5090.397138018239
 20
-288.7877769329081
 30
0.0
 11
5089.947553057302
 21
-287.0743522502909
 31
0.0
  0
LINE
  5
B457
330
18
100
AcDbEntity
  8
01
100
AcDbLine
 10
5089.947553057302
 20
-287.0743522502909
 30
0.0
 11
5089.378384966481
 21
-285.3958854534159
 31
0.0
  0
LINE
  5
B458
330
18
100
AcDbEntity
  8
01
100
AcDbLine
 10
5089.378384966481
 20
-285.3958854534159
 30
0.0
 11
5088.690762896169
 21
-283.7606010295878
 31
0.0
  0
LINE
  5
B459
330
18
100
AcDbEntity
  8
01
100
AcDbLine
 10
5088.690762896169
 20
-283.7606010295878
 30
0.0
 11
5087.886502642263
 21
-282.1783256389628
 31
0.0
  0
LINE
  5
B45A
330
18
100
AcDbEntity
  8
01
100
AcDbLine
 10
5087.886502642263
 20
-282.1783256389628
 30
0.0
 11
5086.968869585622
 21
-280.6583366252909
 31
0.0
  0
LINE
  5
B45B
330
18
100
AcDbEntity
  8
01
100
AcDbLine
 10
5086.968869585622
 20
-280.6583366252909
 30
0.0
 11
5085.942227739919
 21
-279.2093314983378
 31
0.0
  0
LINE
  5
B45C
330
18
100
AcDbEntity
  8
01
100
AcDbLine
 10
5085.942227739919
 20
-279.2093314983378
 30
0.0
 11
5084.812512774099
 21
-277.8393516399394
 31
0.0
  0
LINE
  5
B45D
330
18
100
AcDbEntity
  8
01
100
AcDbLine
 10
5084.812512774099
 20
-277.8393516399394
 30
0.0
 11
5083.586331743825
 21
-276.5555991985331
 31
0.0
  0
LINE
  5
B45E
330
18
100
AcDbEntity
  8
01
100
AcDbLine
 10
5083.586331743825
 20
-276.5555991985331
 30
0.0
 11
5082.270734209646
 21
-275.3645439006816
 31
0.0
  0
LINE
  5
B45F
330
18
100
AcDbEntity
  8
01
100
AcDbLine
 10
5082.270734209646
 20
-275.3645439006816
 30
0.0
 11
5080.873105425466
 21
-274.2719688274394
 31
0.0
  0
LINE
  5
B460
330
18
100
AcDbEntity
  8
01
100
AcDbLine
 10
5080.873105425466
 20
-274.2719688274394
 30
0.0
 11
5079.238171953786
 21
-273.1828574993144
 31
0.0
  0
LINE
  5
B461
330
18
100
AcDbEntity
  8
01
100
AcDbLine
 10
5079.129208941091
 20
-273.1166343547831
 30
0.0
 11
5077.454404253591
 21
-272.1975059368144
 31
0.0
  0
LINE
  5
B462
330
18
100
AcDbEntity
  8
01
100
AcDbLine
 10
5077.454404253591
 20
-272.1975059368144
 30
0.0
 11
5075.714414019216
 21
-271.4270896770487
 31
0.0
  0
LINE
  5
B463
330
18
100
AcDbEntity
  8
01
100
AcDbLine
 10
5075.714414019216
 20
-271.4270896770487
 30
0.0
 11
5073.930188555349
 21
-270.8042411663066
 31
0.0
  0
LINE
  5
B464
330
18
100
AcDbEntity
  8
01
100
AcDbLine
 10
5073.930188555349
 20
-270.8042411663066
 30
0.0
 11
5072.119183916677
 21
-270.3262901165019
 31
0.0
  0
LINE
  5
B465
330
18
100
AcDbEntity
  8
01
100
AcDbLine
 10
5072.119183916677
 20
-270.3262901165019
 30
0.0
 11
5070.296628374685
 21
-269.9877281047831
 31
0.0
  0
LINE
  5
B466
330
18
100
AcDbEntity
  8
01
100
AcDbLine
 10
5070.296628374685
 20
-269.9877281047831
 30
0.0
 11
5068.479947466481
 21
-269.7824973918925
 31
0.0
  0
LINE
  5
B467
330
18
100
AcDbEntity
  8
01
100
AcDbLine
 10
5068.479947466481
 20
-269.7824973918925
 30
0.0
 11
5066.68342341863
 21
-269.7036094524394
 31
0.0
  0
LINE
  5
B468
330
18
100
AcDbEntity
  8
01
100
AcDbLine
 10
5066.68342341863
 20
-269.7036094524394
 30
0.0
 11
5064.921018023122
 21
-269.7434043743144
 31
0.0
  0
LINE
  5
B469
330
18
100
AcDbEntity
  8
01
100
AcDbLine
 10
5064.921018023122
 20
-269.7434043743144
 30
0.0
 11
5063.206647295583
 21
-269.8938102581034
 31
0.0
  0
LINE
  5
B46A
330
18
100
AcDbEntity
  8
01
100
AcDbLine
 10
5063.206647295583
 20
-269.8938102581034
 30
0.0
 11
5061.553082842458
 21
-270.1462058879862
 31
0.0
  0
LINE
  5
B46B
330
18
100
AcDbEntity
  8
01
100
AcDbLine
 10
5061.553082842458
 20
-270.1462058879862
 30
0.0
 11
5059.971814531911
 21
-270.4914817668925
 31
0.0
  0
LINE
  5
B46C
330
18
100
AcDbEntity
  8
01
100
AcDbLine
 10
5059.971814531911
 20
-270.4914817668925
 30
0.0
 11
5058.472791094411
 21
-270.9202079631816
 31
0.0
  0
LINE
  5
B46D
330
18
100
AcDbEntity
  8
01
100
AcDbLine
 10
5058.472791094411
 20
-270.9202079631816
 30
0.0
 11
5057.064359087575
 21
-271.4227104045878
 31
0.0
  0
LINE
  5
B46E
330
18
100
AcDbEntity
  8
01
100
AcDbLine
 10
5057.064359087575
 20
-271.4227104045878
 30
0.0
 11
5055.754086870778
 21
-271.9893150188456
 31
0.0
  0
LINE
  5
B46F
330
18
100
AcDbEntity
  8
01
100
AcDbLine
 10
5055.754086870778
 20
-271.9893150188456
 30
0.0
 11
5054.546185869802
 21
-272.6104850627909
 31
0.0
  0
LINE
  5
B470
330
18
100
AcDbEntity
  8
01
100
AcDbLine
 10
5054.546185869802
 20
-272.6104850627909
 30
0.0
 11
5053.443555254567
 21
-273.2766990520487
 31
0.0
  0
LINE
  5
B471
330
18
100
AcDbEntity
  8
01
100
AcDbLine
 10
5053.443555254567
 20
-273.2766990520487
 30
0.0
 11
5052.446668047536
 21
-273.9792899944316
 31
0.0
  0
LINE
  5
B472
330
18
100
AcDbEntity
  8
01
100
AcDbLine
 10
5052.446668047536
 20
-273.9792899944316
 30
0.0
 11
5051.5538610407
 21
-274.7102165081034
 31
0.0
  0
LINE
  5
B473
330
18
100
AcDbEntity
  8
01
100
AcDbLine
 10
5051.5538610407
 20
-274.7102165081034
 30
0.0
 11
5050.763074297536
 21
-275.4617881633769
 31
0.0
  0
LINE
  5
B474
330
18
100
AcDbEntity
  8
01
100
AcDbLine
 10
5050.763074297536
 20
-275.4617881633769
 30
0.0
 11
5050.069989580739
 21
-276.2282676555644
 31
0.0
  0
LINE
  5
B475
330
18
100
AcDbEntity
  8
01
100
AcDbLine
 10
5050.069989580739
 20
-276.2282676555644
 30
0.0
 11
5049.469937700856
 21
-277.0042533733378
 31
0.0
  0
LINE
  5
B476
330
18
100
AcDbEntity
  8
01
100
AcDbLine
 10
5049.469937700856
 20
-277.0042533733378
 30
0.0
 11
5048.958630938161
 21
-277.7842521526347
 31
0.0
  0
LINE
  5
B477
330
18
100
AcDbEntity
  8
01
100
AcDbLine
 10
5048.958630938161
 20
-277.7842521526347
 30
0.0
 11
5048.529981035817
 21
-278.5658073284159
 31
0.0
  0
LINE
  5
B478
330
18
100
AcDbEntity
  8
01
100
AcDbLine
 10
5048.529981035817
 20
-278.5658073284159
 30
0.0
 11
5048.176358599294
 21
-279.3482017375956
 31
0.0
  0
LINE
  5
B479
330
18
100
AcDbEntity
  8
01
100
AcDbLine
 10
5048.176358599294
 20
-279.3482017375956
 30
0.0
 11
5047.886472124685
 21
-280.1333732463847
 31
0.0
  0
LINE
  5
B47A
330
18
100
AcDbEntity
  8
01
100
AcDbLine
 10
5047.886472124685
 20
-280.1333732463847
 30
0.0
 11
5047.662854570974
 21
-280.9204368450175
 31
0.0
  0
LINE
  5
B47B
330
18
100
AcDbEntity
  8
01
100
AcDbLine
 10
5047.662854570974
 20
-280.9204368450175
 30
0.0
 11
5047.529202837575
 21
-281.7089652874003
 31
0.0
  0
LINE
  5
B47C
330
18
100
AcDbEntity
  8
01
100
AcDbLine
 10
5047.529202837575
 20
-281.7089652874003
 30
0.0
 11
5047.497403521169
 21
-282.4992179729472
 31
0.0
  0
LINE
  5
B47D
330
18
100
AcDbEntity
  8
01
100
AcDbLine
 10
5047.497403521169
 20
-282.4992179729472
 30
0.0
 11
5047.57372798406
 21
-283.2883109905253
 31
0.0
  0
LINE
  5
B47E
330
18
100
AcDbEntity
  8
01
100
AcDbLine
 10
5047.57372798406
 20
-283.2883109905253
 30
0.0
 11
5047.76528682195
 21
-284.0728874065409
 31
0.0
  0
LINE
  5
B47F
330
18
100
AcDbEntity
  8
01
100
AcDbLine
 10
5047.76528682195
 20
-284.0728874065409
 30
0.0
 11
5048.080518145192
 21
-284.8493003704081
 31
0.0
  0
LINE
  5
B480
330
18
100
AcDbEntity
  8
01
100
AcDbLine
 10
5048.080518145192
 20
-284.8493003704081
 30
0.0
 11
5048.527203936208
 21
-285.61294172783
 31
0.0
  0
LINE
  5
B481
330
18
100
AcDbEntity
  8
01
100
AcDbLine
 10
5048.527203936208
 20
-285.61294172783
 30
0.0
 11
5049.111340899099
 21
-286.3583488323222
 31
0.0
  0
LINE
  5
B482
330
18
100
AcDbEntity
  8
01
100
AcDbLine
 10
5049.111340899099
 20
-286.3583488323222
 30
0.0
 11
5049.836148638356
 21
-287.0794029094706
 31
0.0
  0
LINE
  5
B483
330
18
100
AcDbEntity
  8
01
100
AcDbLine
 10
5049.836148638356
 20
-287.0794029094706
 30
0.0
 11
5050.702756304372
 21
-287.7698325969706
 31
0.0
  0
LINE
  5
B484
330
18
100
AcDbEntity
  8
01
100
AcDbLine
 10
5050.702756304372
 20
-287.7698325969706
 30
0.0
 11
5051.70783748113
 21
-288.4233970500956
 31
0.0
  0
LINE
  5
B485
330
18
100
AcDbEntity
  8
01
100
AcDbLine
 10
5051.70783748113
 20
-288.4233970500956
 30
0.0
 11
5052.844617266286
 21
-289.0344657756816
 31
0.0
  0
LINE
  5
B486
330
18
100
AcDbEntity
  8
01
100
AcDbLine
 10
5052.844617266286
 20
-289.0344657756816
 30
0.0
 11
5054.103543657888
 21
-289.5986442424784
 31
0.0
  0
LINE
  5
B487
330
18
100
AcDbEntity
  8
01
100
AcDbLine
 10
5054.103543657888
 20
-289.5986442424784
 30
0.0
 11
5055.472638506521
 21
-290.1128806926737
 31
0.0
  0
LINE
  5
B488
330
18
100
AcDbEntity
  8
01
100
AcDbLine
 10
5055.472638506521
 20
-290.1128806926737
 30
0.0
 11
5056.938321489919
 21
-290.5749778606425
 31
0.0
  0
LINE
  5
B489
330
18
100
AcDbEntity
  8
01
100
AcDbLine
 10
5056.938321489919
 20
-290.5749778606425
 30
0.0
 11
5058.48730220281
 21
-290.9844779827128
 31
0.0
  0
LINE
  5
B48A
330
18
100
AcDbEntity
  8
01
100
AcDbLine
 10
5058.48730220281
 20
-290.9844779827128
 30
0.0
 11
5060.106625933278
 21
-291.3417472698222
 31
0.0
  0
LINE
  5
B48B
330
18
100
AcDbEntity
  8
01
100
AcDbLine
 10
5060.106625933278
 20
-291.3417472698222
 30
0.0
 11
5061.784253496755
 21
-291.6474418499003
 31
0.0
  0
LINE
  5
B48C
330
18
100
AcDbEntity
  8
01
100
AcDbLine
 10
5061.784253496755
 20
-291.6474418499003
 30
0.0
 11
5063.50976314031
 21
-291.9026298381816
 31
0.0
  0
LINE
  5
B48D
330
18
100
AcDbEntity
  8
01
100
AcDbLine
 10
5063.50976314031
 20
-291.9026298381816
 30
0.0
 11
5065.273572344411
 21
-292.1088371135722
 31
0.0
  0
LINE
  5
B48E
330
18
100
AcDbEntity
  8
01
100
AcDbLine
 10
5065.273572344411
 20
-292.1088371135722
 30
0.0
 11
5067.067365069021
 21
-292.2684745647441
 31
0.0
  0
LINE
  5
B48F
330
18
100
AcDbEntity
  8
01
100
AcDbLine
 10
5067.067365069021
 20
-292.2684745647441
 30
0.0
 11
5068.883496660817
 21
-292.3847617961894
 31
0.0
  0
LINE
  5
B490
330
18
100
AcDbEntity
  8
01
100
AcDbLine
 10
5068.883496660817
 20
-292.3847617961894
 30
0.0
 11
5070.715192217458
 21
-292.4622611858378
 31
0.0
  0
LINE
  5
B491
330
18
100
AcDbEntity
  8
01
100
AcDbLine
 10
5070.715192217458
 20
-292.4622611858378
 30
0.0
 11
5072.5567907282
 21
-292.5071372844706
 31
0.0
  0
LINE
  5
B492
330
18
100
AcDbEntity
  8
01
100
AcDbLine
 10
5072.5567907282
 20
-292.5071372844706
 30
0.0
 11
5074.404385943044
 21
-292.5263633586894
 31
0.0
  0
LINE
  5
B493
330
18
100
AcDbEntity
  8
01
100
AcDbLine
 10
5074.404385943044
 20
-292.5263633586894
 30
0.0
 11
5076.285367388356
 21
-292.5272331096659
 31
0.0
  0
LINE
  5
B494
330
18
100
AcDbEntity
  8
01
100
AcDbLine
 10
5076.511502642263
 20
-292.5273399211894
 30
0.0
 11
5085.918713945974
 21
-292.5360679485331
 31
0.0
  0
LINE
  5
B495
330
18
100
AcDbEntity
  8
01
100
AcDbLine
 10
5085.918713945974
 20
-292.5360679485331
 30
0.0
 11
5095.328580278981
 21
-292.5462303020487
 31
0.0
  0
LINE
  5
B496
330
18
100
AcDbEntity
  8
01
100
AcDbLine
 10
5095.328580278981
 20
-292.5462303020487
 30
0.0
 11
5104.743634600271
 21
-292.5560111858378
 31
0.0
  0
LINE
  5
B497
330
18
100
AcDbEntity
  8
01
100
AcDbLine
 10
5104.743634600271
 20
-292.5560111858378
 30
0.0
 11
5114.160504717458
 21
-292.5658683635722
 31
0.0
  0
LINE
  5
B498
330
18
100
AcDbEntity
  8
01
100
AcDbLine
 10
5114.160504717458
 20
-292.5658683635722
 30
0.0
 11
5123.576276201833
 21
-292.5758781291972
 31
0.0
  0
LINE
  5
B499
330
18
100
AcDbEntity
  8
01
100
AcDbLine
 10
5123.576276201833
 20
-292.5758781291972
 30
0.0
 11
5132.988080401052
 21
-292.5858268596659
 31
0.0
  0
LINE
  5
B49A
330
18
100
AcDbEntity
  8
01
100
AcDbLine
 10
5132.988080401052
 20
-292.5858268596659
 30
0.0
 11
5142.393399614919
 21
-292.59585188408
 31
0.0
  0
LINE
  5
B49B
330
18
100
AcDbEntity
  8
01
100
AcDbLine
 10
5142.393399614919
 20
-292.59585188408
 30
0.0
 11
5151.788907427419
 21
-292.6055412151347
 31
0.0
  0
LINE
  5
B49C
330
18
100
AcDbEntity
  8
01
100
AcDbLine
 10
5151.788907427419
 20
-292.6055412151347
 30
0.0
 11
5161.173245806325
 21
-292.6149406291972
 31
0.0
  0
LINE
  5
B49D
330
18
100
AcDbEntity
  8
01
100
AcDbLine
 10
5161.173245806325
 20
-292.6149406291972
 30
0.0
 11
5170.545026201833
 21
-292.61782454033
 31
0.0
  0
LINE
  5
B49E
330
18
100
AcDbEntity
  8
01
100
AcDbLine
 10
5170.545026201833
 20
-292.61782454033
 30
0.0
 11
5180.646100420583
 21
-292.5620384075175
 31
0.0
  0
LINE
  5
B49F
330
18
100
AcDbEntity
  8
01
100
AcDbLine
 10
5180.646253008474
 20
-292.5620231487284
 30
0.0
 11
5181.237042803396
 21
-292.5522117473612
 31
0.0
  0
LINE
  5
B4A0
330
18
100
AcDbEntity
  8
01
100
AcDbLine
 10
5181.237042803396
 20
-292.5522117473612
 30
0.0
 11
5181.826398272146
 21
-292.5337943889628
 31
0.0
  0
LINE
  5
B4A1
330
18
100
AcDbEntity
  8
01
100
AcDbLine
 10
5181.826398272146
 20
-292.5337943889628
 30
0.0
 11
5182.41145076238
 21
-292.498439774705
 31
0.0
  0
LINE
  5
B4A2
330
18
100
AcDbEntity
  8
01
100
AcDbLine
 10
5182.41145076238
 20
-292.498439774705
 30
0.0
 11
5182.984143633474
 21
-292.4355735637675
 31
0.0
  0
LINE
  5
B4A3
330
18
100
AcDbEntity
  8
01
100
AcDbLine
 10
5182.984143633474
 20
-292.4355735637675
 30
0.0
 11
5183.530652422536
 21
-292.3321647502909
 31
0.0
  0
LINE
  5
B4A4
330
18
100
AcDbEntity
  8
01
100
AcDbLine
 10
5183.530652422536
 20
-292.3321647502909
 30
0.0
 11
5184.017743486989
 21
-292.1711082317362
 31
0.0
  0
LINE
  5
B4A5
330
18
100
AcDbEntity
  8
01
100
AcDbLine
 10
5184.017743486989
 20
-292.1711082317362
 30
0.0
 11
5184.393170733083
 21
-291.9469718791972
 31
0.0
  0
LINE
  5
B4A6
330
18
100
AcDbEntity
  8
01
100
AcDbLine
 10
5184.393170733083
 20
-291.9469718791972
 30
0.0
 11
5184.638196367849
 21
-291.6850547649394
 31
0.0
  0
LINE
  5
B4A7
330
18
100
AcDbEntity
  8
01
100
AcDbLine
 10
5184.638196367849
 20
-291.6850547649394
 30
0.0
 11
5184.788800615896
 21
-291.4177818157206
 31
0.0
  0
LINE
  5
B4A8
330
18
100
AcDbEntity
  8
01
100
AcDbLine
 10
5184.788800615896
 20
-291.4177818157206
 30
0.0
 11
5184.87580623113
 21
-291.1597404338847
 31
0.0
  0
LINE
  5
B4A9
330
18
100
AcDbEntity
  8
01
100
AcDbLine
 10
5184.87580623113
 20
-291.1597404338847
 30
0.0
 11
5184.915723223317
 21
-290.9173087932597
 31
0.0
  0
LINE
  5
B4AA
330
18
100
AcDbEntity
  8
01
100
AcDbLine
 10
5184.915723223317
 20
-290.9173087932597
 30
0.0
 11
5184.919354815114
 21
-290.6939201213847
 31
0.0
  0
LINE
  5
B4AB
330
18
100
AcDbEntity
  8
01
100
AcDbLine
 10
5184.919354815114
 20
-290.6939201213847
 30
0.0
 11
5184.892957110036
 21
-290.4913139202128
 31
0.0
  0
LINE
  5
B4AC
330
18
100
AcDbEntity
  8
01
100
AcDbLine
 10
5184.892957110036
 20
-290.4913139202128
 30
0.0
 11
5184.840924639333
 21
-290.3105583049784
 31
0.0
  0
LINE
  5
B4AD
330
18
100
AcDbEntity
  8
01
100
AcDbLine
 10
5184.840924639333
 20
-290.3105583049784
 30
0.0
 11
5184.766644854177
 21
-290.1523094036112
 31
0.0
  0
LINE
  5
B4AE
330
18
100
AcDbEntity
  8
01
100
AcDbLine
 10
5184.766644854177
 20
-290.1523094036112
 30
0.0
 11
5184.672162432302
 21
-290.0166587688456
 31
0.0
  0
LINE
  5
B4AF
330
18
100
AcDbEntity
  8
01
100
AcDbLine
 10
5184.672162432302
 20
-290.0166587688456
 30
0.0
 11
5184.559064287771
 21
-289.9034995891581
 31
0.0
  0
LINE
  5
B4B0
330
18
100
AcDbEntity
  8
01
100
AcDbLine
 10
5184.559064287771
 20
-289.9034995891581
 30
0.0
 11
5184.42854060613
 21
-289.812404618455
 31
0.0
  0
LINE
  5
B4B1
330
18
100
AcDbEntity
  8
01
100
AcDbLine
 10
5184.42854060613
 20
-289.812404618455
 30
0.0
 11
5184.281506914724
 21
-289.7427940227519
 31
0.0
  0
LINE
  5
B4B2
330
18
100
AcDbEntity
  8
01
100
AcDbLine
 10
5184.281506914724
 20
-289.7427940227519
 30
0.0
 11
5184.118451494802
 21
-289.6937980510722
 31
0.0
  0
LINE
  5
B4B3
330
18
100
AcDbEntity
  8
01
100
AcDbLine
 10
5184.118451494802
 20
-289.6937980510722
 30
0.0
 11
5183.939740557302
 21
-289.6644401409159
 31
0.0
  0
LINE
  5
B4B4
330
18
100
AcDbEntity
  8
01
100
AcDbLine
 10
5183.939740557302
 20
-289.6644401409159
 30
0.0
 11
5183.736066240896
 21
-289.6534843303691
 31
0.0
  0
LINE
  5
B4B5
330
18
100
AcDbEntity
  8
01
100
AcDbLine
 10
5076.511502642263
 20
-296.1307029582987
 30
0.0
 11
5085.918713945974
 21
-296.1219596721659
 31
0.0
  0
LINE
  5
B4B6
330
18
100
AcDbEntity
  8
01
100
AcDbLine
 10
5085.918713945974
 20
-296.1219596721659
 30
0.0
 11
5095.328580278981
 21
-296.1117973186503
 31
0.0
  0
LINE
  5
B4B7
330
18
100
AcDbEntity
  8
01
100
AcDbLine
 10
5095.328580278981
 20
-296.1117973186503
 30
0.0
 11
5104.743634600271
 21
-296.1020316936503
 31
0.0
  0
LINE
  5
B4B8
330
18
100
AcDbEntity
  8
01
100
AcDbLine
 10
5104.743634600271
 20
-296.1020316936503
 30
0.0
 11
5114.160504717458
 21
-296.0921745159159
 31
0.0
  0
LINE
  5
B4B9
330
18
100
AcDbEntity
  8
01
100
AcDbLine
 10
5114.160504717458
 20
-296.0921745159159
 30
0.0
 11
5123.576276201833
 21
-296.0821647502909
 31
0.0
  0
LINE
  5
B4BA
330
18
100
AcDbEntity
  8
01
100
AcDbLine
 10
5123.576276201833
 20
-296.0821647502909
 30
0.0
 11
5132.988080401052
 21
-296.0722160198222
 31
0.0
  0
LINE
  5
B4BB
330
18
100
AcDbEntity
  8
01
100
AcDbLine
 10
5132.988080401052
 20
-296.0722160198222
 30
0.0
 11
5142.393399614919
 21
-296.0621757366191
 31
0.0
  0
LINE
  5
B4BC
330
18
100
AcDbEntity
  8
01
100
AcDbLine
 10
5142.393399614919
 20
-296.0621757366191
 30
0.0
 11
5151.788907427419
 21
-296.0524864055644
 31
0.0
  0
LINE
  5
B4BD
330
18
100
AcDbEntity
  8
01
100
AcDbLine
 10
5151.788907427419
 20
-296.0524864055644
 30
0.0
 11
5161.173245806325
 21
-296.0430869915019
 31
0.0
  0
LINE
  5
B4BE
330
18
100
AcDbEntity
  8
01
100
AcDbLine
 10
5161.173245806325
 20
-296.0430869915019
 30
0.0
 11
5170.545026201833
 21
-296.0402030803691
 31
0.0
  0
LINE
  5
B4BF
330
18
100
AcDbEntity
  8
01
100
AcDbLine
 10
5170.545026201833
 20
-296.0402030803691
 30
0.0
 11
5180.646100420583
 21
-296.0960044719706
 31
0.0
  0
LINE
  5
B4C0
330
18
100
AcDbEntity
  8
01
100
AcDbLine
 10
5079.129208941091
 20
-315.5413932659159
 30
0.0
 11
5077.454404253591
 21
-316.4605216838847
 31
0.0
  0
LINE
  5
B4C1
330
18
100
AcDbEntity
  8
01
100
AcDbLine
 10
5077.454404253591
 20
-316.4605216838847
 30
0.0
 11
5075.714414019216
 21
-317.2309379436503
 31
0.0
  0
LINE
  5
B4C2
330
18
100
AcDbEntity
  8
01
100
AcDbLine
 10
5075.714414019216
 20
-317.2309379436503
 30
0.0
 11
5073.930188555349
 21
-317.8537864543925
 31
0.0
  0
LINE
  5
B4C3
330
18
100
AcDbEntity
  8
01
100
AcDbLine
 10
5073.930188555349
 20
-317.8537864543925
 30
0.0
 11
5072.119183916677
 21
-318.3317375041972
 31
0.0
  0
LINE
  5
B4C4
330
18
100
AcDbEntity
  8
01
100
AcDbLine
 10
5072.119183916677
 20
-318.3317375041972
 30
0.0
 11
5070.296628374685
 21
-318.670314774705
 31
0.0
  0
LINE
  5
B4C5
330
18
100
AcDbEntity
  8
01
100
AcDbLine
 10
5070.296628374685
 20
-318.670314774705
 30
0.0
 11
5068.479947466481
 21
-318.8755302288066
 31
0.0
  0
LINE
  5
B4C6
330
18
100
AcDbEntity
  8
01
100
AcDbLine
 10
5068.479947466481
 20
-318.8755302288066
 30
0.0
 11
5066.68342341863
 21
-318.9544334270487
 31
0.0
  0
LINE
  5
B4C7
330
18
100
AcDbEntity
  8
01
100
AcDbLine
 10
5066.68342341863
 20
-318.9544334270487
 30
0.0
 11
5064.921018023122
 21
-318.9146232463847
 31
0.0
  0
LINE
  5
B4C8
330
18
100
AcDbEntity
  8
01
100
AcDbLine
 10
5064.921018023122
 20
-318.9146232463847
 30
0.0
 11
5063.206647295583
 21
-318.7642326213847
 31
0.0
  0
LINE
  5
B4C9
330
18
100
AcDbEntity
  8
01
100
AcDbLine
 10
5063.206647295583
 20
-318.7642326213847
 30
0.0
 11
5061.553082842458
 21
-318.5118369915019
 31
0.0
  0
LINE
  5
B4CA
330
18
100
AcDbEntity
  8
01
100
AcDbLine
 10
5061.553082842458
 20
-318.5118369915019
 30
0.0
 11
5059.971814531911
 21
-318.1665458538066
 31
0.0
  0
LINE
  5
B4CB
330
18
100
AcDbEntity
  8
01
100
AcDbLine
 10
5059.971814531911
 20
-318.1665458538066
 30
0.0
 11
5058.472791094411
 21
-317.7378349163066
 31
0.0
  0
LINE
  5
B4CC
330
18
100
AcDbEntity
  8
01
100
AcDbLine
 10
5058.472791094411
 20
-317.7378349163066
 30
0.0
 11
5057.064359087575
 21
-317.2353324749003
 31
0.0
  0
LINE
  5
B4CD
330
18
100
AcDbEntity
  8
01
100
AcDbLine
 10
5057.064359087575
 20
-317.2353324749003
 30
0.0
 11
5055.754086870778
 21
-316.6687126018534
 31
0.0
  0
LINE
  5
B4CE
330
18
100
AcDbEntity
  8
01
100
AcDbLine
 10
5055.754086870778
 20
-316.6687126018534
 30
0.0
 11
5054.546185869802
 21
-316.0475578166972
 31
0.0
  0
LINE
  5
B4CF
330
18
100
AcDbEntity
  8
01
100
AcDbLine
 10
5054.546185869802
 20
-316.0475578166972
 30
0.0
 11
5053.443555254567
 21
-315.3813285686503
 31
0.0
  0
LINE
  5
B4D0
330
18
100
AcDbEntity
  8
01
100
AcDbLine
 10
5053.443555254567
 20
-315.3813285686503
 30
0.0
 11
5052.446668047536
 21
-314.6787528850566
 31
0.0
  0
LINE
  5
B4D1
330
18
100
AcDbEntity
  8
01
100
AcDbLine
 10
5052.446668047536
 20
-314.6787528850566
 30
0.0
 11
5051.5538610407
 21
-313.9478263713847
 31
0.0
  0
LINE
  5
B4D2
330
18
100
AcDbEntity
  8
01
100
AcDbLine
 10
5051.5538610407
 20
-313.9478263713847
 30
0.0
 11
5050.763074297536
 21
-313.1962547161112
 31
0.0
  0
LINE
  5
B4D3
330
18
100
AcDbEntity
  8
01
100
AcDbLine
 10
5050.763074297536
 20
-313.1962547161112
 30
0.0
 11
5050.069989580739
 21
-312.4297752239237
 31
0.0
  0
LINE
  5
B4D4
330
18
100
AcDbEntity
  8
01
100
AcDbLine
 10
5050.069989580739
 20
-312.4297752239237
 30
0.0
 11
5049.469937700856
 21
-311.6537742473612
 31
0.0
  0
LINE
  5
B4D5
330
18
100
AcDbEntity
  8
01
100
AcDbLine
 10
5049.469937700856
 20
-311.6537742473612
 30
0.0
 11
5048.958630938161
 21
-310.8737754680644
 31
0.0
  0
LINE
  5
B4D6
330
18
100
AcDbEntity
  8
01
100
AcDbLine
 10
5048.958630938161
 20
-310.8737754680644
 30
0.0
 11
5048.529981035817
 21
-310.0922355510722
 31
0.0
  0
LINE
  5
B4D7
330
18
100
AcDbEntity
  8
01
100
AcDbLine
 10
5048.529981035817
 20
-310.0922355510722
 30
0.0
 11
5048.176358599294
 21
-309.3098258831034
 31
0.0
  0
LINE
  5
B4D8
330
18
100
AcDbEntity
  8
01
100
AcDbLine
 10
5048.176358599294
 20
-309.3098258831034
 30
0.0
 11
5047.886472124685
 21
-308.5246543743144
 31
0.0
  0
LINE
  5
B4D9
330
18
100
AcDbEntity
  8
01
100
AcDbLine
 10
5047.886472124685
 20
-308.5246543743144
 30
0.0
 11
5047.662854570974
 21
-307.7375907756816
 31
0.0
  0
LINE
  5
B4DA
330
18
100
AcDbEntity
  8
01
100
AcDbLine
 10
5047.662854570974
 20
-307.7375907756816
 30
0.0
 11
5047.529202837575
 21
-306.9490775920878
 31
0.0
  0
LINE
  5
B4DB
330
18
100
AcDbEntity
  8
01
100
AcDbLine
 10
5047.529202837575
 20
-306.9490775920878
 30
0.0
 11
5047.497403521169
 21
-306.1588249065409
 31
0.0
  0
LINE
  5
B4DC
330
18
100
AcDbEntity
  8
01
100
AcDbLine
 10
5047.497403521169
 20
-306.1588249065409
 30
0.0
 11
5047.57372798406
 21
-305.3697318889628
 31
0.0
  0
LINE
  5
B4DD
330
18
100
AcDbEntity
  8
01
100
AcDbLine
 10
5047.57372798406
 20
-305.3697318889628
 30
0.0
 11
5047.76528682195
 21
-304.5851402141581
 31
0.0
  0
LINE
  5
B4DE
330
18
100
AcDbEntity
  8
01
100
AcDbLine
 10
5047.76528682195
 20
-304.5851402141581
 30
0.0
 11
5048.080518145192
 21
-303.80874250908
 31
0.0
  0
LINE
  5
B4DF
330
18
100
AcDbEntity
  8
01
100
AcDbLine
 10
5048.080518145192
 20
-303.80874250908
 30
0.0
 11
5048.527203936208
 21
-303.0451011516581
 31
0.0
  0
LINE
  5
B4E0
330
18
100
AcDbEntity
  8
01
100
AcDbLine
 10
5048.527203936208
 20
-303.0451011516581
 30
0.0
 11
5049.111340899099
 21
-302.2996787883769
 31
0.0
  0
LINE
  5
B4E1
330
18
100
AcDbEntity
  8
01
100
AcDbLine
 10
5049.111340899099
 20
-302.2996787883769
 30
0.0
 11
5049.836148638356
 21
-301.5786247112284
 31
0.0
  0
LINE
  5
B4E2
330
18
100
AcDbEntity
  8
01
100
AcDbLine
 10
5049.836148638356
 20
-301.5786247112284
 30
0.0
 11
5050.702756304372
 21
-300.8881950237284
 31
0.0
  0
LINE
  5
B4E3
330
18
100
AcDbEntity
  8
01
100
AcDbLine
 10
5050.702756304372
 20
-300.8881950237284
 30
0.0
 11
5051.70783748113
 21
-300.2346458293925
 31
0.0
  0
LINE
  5
B4E4
330
18
100
AcDbEntity
  8
01
100
AcDbLine
 10
5051.70783748113
 20
-300.2346458293925
 30
0.0
 11
5052.844617266286
 21
-299.6235771038066
 31
0.0
  0
LINE
  5
B4E5
330
18
100
AcDbEntity
  8
01
100
AcDbLine
 10
5052.844617266286
 20
-299.6235771038066
 30
0.0
 11
5054.103543657888
 21
-299.0593833782206
 31
0.0
  0
LINE
  5
B4E6
330
18
100
AcDbEntity
  8
01
100
AcDbLine
 10
5054.103543657888
 20
-299.0593833782206
 30
0.0
 11
5055.472638506521
 21
-298.5451621868144
 31
0.0
  0
LINE
  5
B4E7
330
18
100
AcDbEntity
  8
01
100
AcDbLine
 10
5055.472638506521
 20
-298.5451621868144
 30
0.0
 11
5056.938321489919
 21
-298.0830650188456
 31
0.0
  0
LINE
  5
B4E8
330
18
100
AcDbEntity
  8
01
100
AcDbLine
 10
5056.938321489919
 20
-298.0830650188456
 30
0.0
 11
5058.48730220281
 21
-297.6735648967753
 31
0.0
  0
LINE
  5
B4E9
330
18
100
AcDbEntity
  8
01
100
AcDbLine
 10
5058.48730220281
 20
-297.6735648967753
 30
0.0
 11
5060.106625933278
 21
-297.3162803508769
 31
0.0
  0
LINE
  5
B4EA
330
18
100
AcDbEntity
  8
01
100
AcDbLine
 10
5060.106625933278
 20
-297.3162803508769
 30
0.0
 11
5061.784253496755
 21
-297.0106010295878
 31
0.0
  0
LINE
  5
B4EB
330
18
100
AcDbEntity
  8
01
100
AcDbLine
 10
5061.784253496755
 20
-297.0106010295878
 30
0.0
 11
5063.50976314031
 21
-296.7553977825175
 31
0.0
  0
LINE
  5
B4EC
330
18
100
AcDbEntity
  8
01
100
AcDbLine
 10
5063.50976314031
 20
-296.7553977825175
 30
0.0
 11
5065.273572344411
 21
-296.5492057659159
 31
0.0
  0
LINE
  5
B4ED
330
18
100
AcDbEntity
  8
01
100
AcDbLine
 10
5065.273572344411
 20
-296.5492057659159
 30
0.0
 11
5067.067365069021
 21
-296.389553055955
 31
0.0
  0
LINE
  5
B4EE
330
18
100
AcDbEntity
  8
01
100
AcDbLine
 10
5067.067365069021
 20
-296.389553055955
 30
0.0
 11
5068.883496660817
 21
-296.2732658245097
 31
0.0
  0
LINE
  5
B4EF
330
18
100
AcDbEntity
  8
01
100
AcDbLine
 10
5068.883496660817
 20
-296.2732658245097
 30
0.0
 11
5070.715192217458
 21
-296.1957664348612
 31
0.0
  0
LINE
  5
B4F0
330
18
100
AcDbEntity
  8
01
100
AcDbLine
 10
5070.715192217458
 20
-296.1957664348612
 30
0.0
 11
5072.5567907282
 21
-296.1508903362284
 31
0.0
  0
LINE
  5
B4F1
330
18
100
AcDbEntity
  8
01
100
AcDbLine
 10
5072.5567907282
 20
-296.1508903362284
 30
0.0
 11
5074.404385943044
 21
-296.1316795207987
 31
0.0
  0
LINE
  5
B4F2
330
18
100
AcDbEntity
  8
01
100
AcDbLine
 10
5074.404385943044
 20
-296.1316795207987
 30
0.0
 11
5076.285367388356
 21
-296.1308097698222
 31
0.0
  0
LINE
  5
B4F3
330
18
100
AcDbEntity
  8
01
100
AcDbLine
 10
5090.397138018239
 20
-299.8702506877909
 30
0.0
 11
5089.947553057302
 21
-301.5836753704081
 31
0.0
  0
LINE
  5
B4F4
330
18
100
AcDbEntity
  8
01
100
AcDbLine
 10
5089.947553057302
 20
-301.5836753704081
 30
0.0
 11
5089.378384966481
 21
-303.2621574260722
 31
0.0
  0
LINE
  5
B4F5
330
18
100
AcDbEntity
  8
01
100
AcDbLine
 10
5089.378384966481
 20
-303.2621574260722
 30
0.0
 11
5088.690762896169
 21
-304.8974418499003
 31
0.0
  0
LINE
  5
B4F6
330
18
100
AcDbEntity
  8
01
100
AcDbLine
 10
5088.690762896169
 20
-304.8974418499003
 30
0.0
 11
5087.886502642263
 21
-306.4797172405253
 31
0.0
  0
LINE
  5
B4F7
330
18
100
AcDbEntity
  8
01
100
AcDbLine
 10
5087.886502642263
 20
-306.4797172405253
 30
0.0
 11
5086.968869585622
 21
-307.9996909954081
 31
0.0
  0
LINE
  5
B4F8
330
18
100
AcDbEntity
  8
01
100
AcDbLine
 10
5086.968869585622
 20
-307.9996909954081
 30
0.0
 11
5085.942227739919
 21
-309.4486961223612
 31
0.0
  0
LINE
  5
B4F9
330
18
100
AcDbEntity
  8
01
100
AcDbLine
 10
5085.942227739919
 20
-309.4486961223612
 30
0.0
 11
5084.812512774099
 21
-310.8186912395487
 31
0.0
  0
LINE
  5
B4FA
330
18
100
AcDbEntity
  8
01
100
AcDbLine
 10
5084.812512774099
 20
-310.8186912395487
 30
0.0
 11
5083.586331743825
 21
-312.1024284221659
 31
0.0
  0
LINE
  5
B4FB
330
18
100
AcDbEntity
  8
01
100
AcDbLine
 10
5083.586331743825
 20
-312.1024284221659
 30
0.0
 11
5082.270734209646
 21
-313.2934989788066
 31
0.0
  0
LINE
  5
B4FC
330
18
100
AcDbEntity
  8
01
100
AcDbLine
 10
5082.270734209646
 20
-313.2934989788066
 30
0.0
 11
5080.873105425466
 21
-314.3860587932597
 31
0.0
  0
LINE
  5
B4FD
330
18
100
AcDbEntity
  8
01
100
AcDbLine
 10
5080.873105425466
 20
-314.3860587932597
 30
0.0
 11
5079.238171953786
 21
-315.4751701213847
 31
0.0
  0
LINE
  5
B4FE
330
18
100
AcDbEntity
  8
01
100
AcDbLine
 10
5180.646253008474
 20
-296.0960044719706
 30
0.0
 11
5181.237042803396
 21
-296.1058158733378
 31
0.0
  0
LINE
  5
B4FF
330
18
100
AcDbEntity
  8
01
100
AcDbLine
 10
5181.237042803396
 20
-296.1058158733378
 30
0.0
 11
5181.826398272146
 21
-296.1242484905253
 31
0.0
  0
LINE
  5
B500
330
18
100
AcDbEntity
  8
01
100
AcDbLine
 10
5181.826398272146
 20
-296.1242484905253
 30
0.0
 11
5182.41145076238
 21
-296.1595878459941
 31
0.0
  0
LINE
  5
B501
330
18
100
AcDbEntity
  8
01
100
AcDbLine
 10
5182.41145076238
 20
-296.1595878459941
 30
0.0
 11
5182.984143633474
 21
-296.2224693157206
 31
0.0
  0
LINE
  5
B502
330
18
100
AcDbEntity
  8
01
100
AcDbLine
 10
5182.984143633474
 20
-296.2224693157206
 30
0.0
 11
5183.530652422536
 21
-296.3258628704081
 31
0.0
  0
LINE
  5
B503
330
18
100
AcDbEntity
  8
01
100
AcDbLine
 10
5183.530652422536
 20
-296.3258628704081
 30
0.0
 11
5184.017743486989
 21
-296.4869346477519
 31
0.0
  0
LINE
  5
B504
330
18
100
AcDbEntity
  8
01
100
AcDbLine
 10
5184.017743486989
 20
-296.4869346477519
 30
0.0
 11
5184.393170733083
 21
-296.7110557415019
 31
0.0
  0
LINE
  5
B505
330
18
100
AcDbEntity
  8
01
100
AcDbLine
 10
5184.393170733083
 20
-296.7110557415019
 30
0.0
 11
5184.638196367849
 21
-296.9729728557597
 31
0.0
  0
LINE
  5
B506
330
18
100
AcDbEntity
  8
01
100
AcDbLine
 10
5184.638196367849
 20
-296.9729728557597
 30
0.0
 11
5184.788800615896
 21
-297.2402610637675
 31
0.0
  0
LINE
  5
B507
330
18
100
AcDbEntity
  8
01
100
AcDbLine
 10
5184.788800615896
 20
-297.2402610637675
 30
0.0
 11
5184.87580623113
 21
-297.4983024456034
 31
0.0
  0
LINE
  5
B508
330
18
100
AcDbEntity
  8
01
100
AcDbLine
 10
5184.87580623113
 20
-297.4983024456034
 30
0.0
 11
5184.915723223317
 21
-297.7407340862284
 31
0.0
  0
LINE
  5
B509
330
18
100
AcDbEntity
  8
01
100
AcDbLine
 10
5184.915723223317
 20
-297.7407340862284
 30
0.0
 11
5184.919354815114
 21
-297.9641227581034
 31
0.0
  0
LINE
  5
B50A
330
18
100
AcDbEntity
  8
01
100
AcDbLine
 10
5184.919354815114
 20
-297.9641227581034
 30
0.0
 11
5184.892957110036
 21
-298.1667137004862
 31
0.0
  0
LINE
  5
B50B
330
18
100
AcDbEntity
  8
01
100
AcDbLine
 10
5184.892957110036
 20
-298.1667137004862
 30
0.0
 11
5184.840924639333
 21
-298.3474845745097
 31
0.0
  0
LINE
  5
B50C
330
18
100
AcDbEntity
  8
01
100
AcDbLine
 10
5184.840924639333
 20
-298.3474845745097
 30
0.0
 11
5184.766644854177
 21
-298.5057334758769
 31
0.0
  0
LINE
  5
B50D
330
18
100
AcDbEntity
  8
01
100
AcDbLine
 10
5184.766644854177
 20
-298.5057334758769
 30
0.0
 11
5184.672162432302
 21
-298.6413841106425
 31
0.0
  0
LINE
  5
B50E
330
18
100
AcDbEntity
  8
01
100
AcDbLine
 10
5184.672162432302
 20
-298.6413841106425
 30
0.0
 11
5184.559064287771
 21
-298.7545280315409
 31
0.0
  0
LINE
  5
B50F
330
18
100
AcDbEntity
  8
01
100
AcDbLine
 10
5184.559064287771
 20
-298.7545280315409
 30
0.0
 11
5184.42854060613
 21
-298.8456230022441
 31
0.0
  0
LINE
  5
B510
330
18
100
AcDbEntity
  8
01
100
AcDbLine
 10
5184.42854060613
 20
-298.8456230022441
 30
0.0
 11
5184.281506914724
 21
-298.9152488567362
 31
0.0
  0
LINE
  5
B511
330
18
100
AcDbEntity
  8
01
100
AcDbLine
 10
5184.281506914724
 20
-298.9152488567362
 30
0.0
 11
5184.118451494802
 21
-298.9642448284159
 31
0.0
  0
LINE
  5
B512
330
18
100
AcDbEntity
  8
01
100
AcDbLine
 10
5184.118451494802
 20
-298.9642448284159
 30
0.0
 11
5183.939740557302
 21
-298.9935874797831
 31
0.0
  0
LINE
  5
B513
330
18
100
AcDbEntity
  8
01
100
AcDbLine
 10
5183.939740557302
 20
-298.9935874797831
 30
0.0
 11
5183.736066240896
 21
-299.00454329033
 31
0.0
  0
LINE
  5
B514
330
18
100
AcDbEntity
  8
01
100
AcDbLine
 10
5066.254865069021
 20
-315.8229637004862
 30
0.0
 11
5066.866345781911
 21
-315.5877036907206
 31
0.0
  0
LINE
  5
B515
330
18
100
AcDbEntity
  8
01
100
AcDbLine
 10
5066.866345781911
 20
-315.5877036907206
 30
0.0
 11
5067.434247393239
 21
-315.2812461711894
 31
0.0
  0
LINE
  5
B516
330
18
100
AcDbEntity
  8
01
100
AcDbLine
 10
5067.434247393239
 20
-315.2812461711894
 30
0.0
 11
5067.948377031911
 21
-314.9182700969706
 31
0.0
  0
LINE
  5
B517
330
18
100
AcDbEntity
  8
01
100
AcDbLine
 10
5067.948377031911
 20
-314.9182700969706
 30
0.0
 11
5068.405713457692
 21
-314.5114402629862
 31
0.0
  0
LINE
  5
B518
330
18
100
AcDbEntity
  8
01
100
AcDbLine
 10
5068.405713457692
 20
-314.5114402629862
 30
0.0
 11
5068.807111162771
 21
-314.0711173870097
 31
0.0
  0
LINE
  5
B519
330
18
100
AcDbEntity
  8
01
100
AcDbLine
 10
5068.807111162771
 20
-314.0711173870097
 30
0.0
 11
5069.154996294606
 21
-313.6053886272441
 31
0.0
  0
LINE
  5
B51A
330
18
100
AcDbEntity
  8
01
100
AcDbLine
 10
5069.154996294606
 20
-313.6053886272441
 30
0.0
 11
5069.453030962575
 21
-313.120510087205
 31
0.0
  0
LINE
  5
B51B
330
18
100
AcDbEntity
  8
01
100
AcDbLine
 10
5069.453030962575
 20
-313.120510087205
 30
0.0
 11
5069.704678911794
 21
-312.6218986370097
 31
0.0
  0
LINE
  5
B51C
330
18
100
AcDbEntity
  8
01
100
AcDbLine
 10
5069.704678911794
 20
-312.6218986370097
 30
0.0
 11
5069.913022417653
 21
-312.1137809612284
 31
0.0
  0
LINE
  5
B51D
330
18
100
AcDbEntity
  8
01
100
AcDbLine
 10
5069.913022417653
 20
-312.1137809612284
 30
0.0
 11
5070.080380816091
 21
-311.6001853801737
 31
0.0
  0
LINE
  5
B51E
330
18
100
AcDbEntity
  8
01
100
AcDbLine
 10
5070.080380816091
 20
-311.6001853801737
 30
0.0
 11
5070.208279986013
 21
-311.0849876262675
 31
0.0
  0
LINE
  5
B51F
330
18
100
AcDbEntity
  8
01
100
AcDbLine
 10
5070.208279986013
 20
-311.0849876262675
 30
0.0
 11
5070.297376055349
 21
-310.5718498088847
 31
0.0
  0
LINE
  5
B520
330
18
100
AcDbEntity
  8
01
100
AcDbLine
 10
5070.297376055349
 20
-310.5718498088847
 30
0.0
 11
5070.345883745778
 21
-310.0656089641581
 31
0.0
  0
LINE
  5
B521
330
18
100
AcDbEntity
  8
01
100
AcDbLine
 10
5070.345883745778
 20
-310.0656089641581
 30
0.0
 11
5070.350461382497
 21
-309.5720023967753
 31
0.0
  0
LINE
  5
B522
330
18
100
AcDbEntity
  8
01
100
AcDbLine
 10
5070.350461382497
 20
-309.5720023967753
 30
0.0
 11
5070.306348223317
 21
-309.0980186321269
 31
0.0
  0
LINE
  5
B523
330
18
100
AcDbEntity
  8
01
100
AcDbLine
 10
5070.306348223317
 20
-309.0980186321269
 30
0.0
 11
5070.204175371755
 21
-308.6549033977519
 31
0.0
  0
LINE
  5
B524
330
18
100
AcDbEntity
  8
01
100
AcDbLine
 10
5070.204175371755
 20
-308.6549033977519
 30
0.0
 11
5070.031964678396
 21
-308.2576408245097
 31
0.0
  0
LINE
  5
B525
330
18
100
AcDbEntity
  8
01
100
AcDbLine
 10
5070.031964678396
 20
-308.2576408245097
 30
0.0
 11
5069.774960894216
 21
-307.9278373577128
 31
0.0
  0
LINE
  5
B526
330
18
100
AcDbEntity
  8
01
100
AcDbLine
 10
5069.774960894216
 20
-307.9278373577128
 30
0.0
 11
5069.421231646169
 21
-307.6914939739237
 31
0.0
  0
LINE
  5
B527
330
18
100
AcDbEntity
  8
01
100
AcDbLine
 10
5069.421231646169
 20
-307.6914939739237
 30
0.0
 11
5068.971158403981
 21
-307.5705375530253
 31
0.0
  0
LINE
  5
B528
330
18
100
AcDbEntity
  8
01
100
AcDbLine
 10
5068.971158403981
 20
-307.5705375530253
 30
0.0
 11
5068.442883867849
 21
-307.5712241985331
 31
0.0
  0
LINE
  5
B529
330
18
100
AcDbEntity
  8
01
100
AcDbLine
 10
5068.442883867849
 20
-307.5712241985331
 30
0.0
 11
5067.866025347341
 21
-307.6807212688456
 31
0.0
  0
LINE
  5
B52A
330
18
100
AcDbEntity
  8
01
100
AcDbLine
 10
5067.866025347341
 20
-307.6807212688456
 30
0.0
 11
5067.269025225271
 21
-307.8769950725566
 31
0.0
  0
LINE
  5
B52B
330
18
100
AcDbEntity
  8
01
100
AcDbLine
 10
5067.269025225271
 20
-307.8769950725566
 30
0.0
 11
5066.673032183278
 21
-308.13882063408
 31
0.0
  0
LINE
  5
B52C
330
18
100
AcDbEntity
  8
01
100
AcDbLine
 10
5066.673032183278
 20
-308.13882063408
 30
0.0
 11
5066.092801470388
 21
-308.4492912151347
 31
0.0
  0
LINE
  5
B52D
330
18
100
AcDbEntity
  8
01
100
AcDbLine
 10
5066.092801470388
 20
-308.4492912151347
 30
0.0
 11
5065.537396807302
 21
-308.7969627239237
 31
0.0
  0
LINE
  5
B52E
330
18
100
AcDbEntity
  8
01
100
AcDbLine
 10
5065.537396807302
 20
-308.7969627239237
 30
0.0
 11
5065.014172930349
 21
-309.1721458293925
 31
0.0
  0
LINE
  5
B52F
330
18
100
AcDbEntity
  8
01
100
AcDbLine
 10
5065.014172930349
 20
-309.1721458293925
 30
0.0
 11
5064.527646441091
 21
-309.56850813408
 31
0.0
  0
LINE
  5
B530
330
18
100
AcDbEntity
  8
01
100
AcDbLine
 10
5064.527646441091
 20
-309.56850813408
 30
0.0
 11
5064.081036944021
 21
-309.9813804485331
 31
0.0
  0
LINE
  5
B531
330
18
100
AcDbEntity
  8
01
100
AcDbLine
 10
5064.081036944021
 20
-309.9813804485331
 30
0.0
 11
5063.677197832692
 21
-310.4064903118144
 31
0.0
  0
LINE
  5
B532
330
18
100
AcDbEntity
  8
01
100
AcDbLine
 10
5063.677197832692
 20
-310.4064903118144
 30
0.0
 11
5063.31818904363
 21
-310.8403739788066
 31
0.0
  0
LINE
  5
B533
330
18
100
AcDbEntity
  8
01
100
AcDbLine
 10
5063.31818904363
 20
-310.8403739788066
 30
0.0
 11
5063.005734819997
 21
-311.2800407268534
 31
0.0
  0
LINE
  5
B534
330
18
100
AcDbEntity
  8
01
100
AcDbLine
 10
5063.005734819997
 20
-311.2800407268534
 30
0.0
 11
5062.741773028005
 21
-311.7228813030253
 31
0.0
  0
LINE
  5
B535
330
18
100
AcDbEntity
  8
01
100
AcDbLine
 10
5062.741773028005
 20
-311.7228813030253
 30
0.0
 11
5062.528287310231
 21
-312.1664543010722
 31
0.0
  0
LINE
  5
B536
330
18
100
AcDbEntity
  8
01
100
AcDbLine
 10
5062.528287310231
 20
-312.1664543010722
 30
0.0
 11
5062.367627520192
 21
-312.6081504680644
 31
0.0
  0
LINE
  5
B537
330
18
100
AcDbEntity
  8
01
100
AcDbLine
 10
5062.367627520192
 20
-312.6081504680644
 30
0.0
 11
5062.262265581716
 21
-313.0453300334941
 31
0.0
  0
LINE
  5
B538
330
18
100
AcDbEntity
  8
01
100
AcDbLine
 10
5062.262265581716
 20
-313.0453300334941
 30
0.0
 11
5062.214826006521
 21
-313.4752006389628
 31
0.0
  0
LINE
  5
B539
330
18
100
AcDbEntity
  8
01
100
AcDbLine
 10
5062.214826006521
 20
-313.4752006389628
 30
0.0
 11
5062.228635210622
 21
-313.8942222454081
 31
0.0
  0
LINE
  5
B53A
330
18
100
AcDbEntity
  8
01
100
AcDbLine
 10
5062.228635210622
 20
-313.8942222454081
 30
0.0
 11
5062.307553667653
 21
-314.2981681682597
 31
0.0
  0
LINE
  5
B53B
330
18
100
AcDbEntity
  8
01
100
AcDbLine
 10
5062.307553667653
 20
-314.2981681682597
 30
0.0
 11
5062.456128496755
 21
-314.681545243455
 31
0.0
  0
LINE
  5
B53C
330
18
100
AcDbEntity
  8
01
100
AcDbLine
 10
5062.456128496755
 20
-314.681545243455
 30
0.0
 11
5062.678983111013
 21
-315.0380821086894
 31
0.0
  0
LINE
  5
B53D
330
18
100
AcDbEntity
  8
01
100
AcDbLine
 10
5062.678983111013
 20
-315.0380821086894
 30
0.0
 11
5062.980359453786
 21
-315.358303055955
 31
0.0
  0
LINE
  5
B53E
330
18
100
AcDbEntity
  8
01
100
AcDbLine
 10
5062.980359453786
 20
-315.358303055955
 30
0.0
 11
5063.363980669606
 21
-315.6314201213847
 31
0.0
  0
LINE
  5
B53F
330
18
100
AcDbEntity
  8
01
100
AcDbLine
 10
5063.363980669606
 20
-315.6314201213847
 30
0.0
 11
5063.829404253591
 21
-315.8437156536112
 31
0.0
  0
LINE
  5
B540
330
18
100
AcDbEntity
  8
01
100
AcDbLine
 10
5063.829404253591
 20
-315.8437156536112
 30
0.0
 11
5064.370465654958
 21
-315.9798545696269
 31
0.0
  0
LINE
  5
B541
330
18
100
AcDbEntity
  8
01
100
AcDbLine
 10
5064.370465654958
 20
-315.9798545696269
 30
0.0
 11
5064.971082110036
 21
-316.0260429241191
 31
0.0
  0
LINE
  5
B542
330
18
100
AcDbEntity
  8
01
100
AcDbLine
 10
5064.971082110036
 20
-316.0260429241191
 30
0.0
 11
5065.604855913747
 21
-315.9743919231425
 31
0.0
  0
LINE
  5
B543
330
18
100
AcDbEntity
  8
01
100
AcDbLine
 10
5065.604855913747
 20
-315.9743919231425
 30
0.0
 11
5066.254865069021
 21
-315.8229637004862
 31
0.0
  0
LINE
  5
B544
330
18
100
AcDbEntity
  8
01
100
AcDbLine
 10
5084.117062944997
 20
-299.9669303752909
 30
0.0
 11
5083.146466631521
 21
-299.9950675823222
 31
0.0
  0
LINE
  5
B545
330
18
100
AcDbEntity
  8
01
100
AcDbLine
 10
5083.146466631521
 20
-299.9950675823222
 30
0.0
 11
5082.176373858083
 21
-300.0306358196269
 31
0.0
  0
LINE
  5
B546
330
18
100
AcDbEntity
  8
01
100
AcDbLine
 10
5082.176373858083
 20
-300.0306358196269
 30
0.0
 11
5081.209103960622
 21
-300.0718345500956
 31
0.0
  0
LINE
  5
B547
330
18
100
AcDbEntity
  8
01
100
AcDbLine
 10
5081.209103960622
 20
-300.0718345500956
 30
0.0
 11
5080.247342486013
 21
-300.1180076457987
 31
0.0
  0
LINE
  5
B548
330
18
100
AcDbEntity
  8
01
100
AcDbLine
 10
5080.247342486013
 20
-300.1180076457987
 30
0.0
 11
5079.294278521169
 21
-300.1689567424784
 31
0.0
  0
LINE
  5
B549
330
18
100
AcDbEntity
  8
01
100
AcDbLine
 10
5079.294278521169
 20
-300.1689567424784
 30
0.0
 11
5078.353925127614
 21
-300.2246513225566
 31
0.0
  0
LINE
  5
B54A
330
18
100
AcDbEntity
  8
01
100
AcDbLine
 10
5078.353925127614
 20
-300.2246513225566
 30
0.0
 11
5077.431348223317
 21
-300.2851371624003
 31
0.0
  0
LINE
  5
B54B
330
18
100
AcDbEntity
  8
01
100
AcDbLine
 10
5077.431348223317
 20
-300.2851371624003
 30
0.0
 11
5076.533063311208
 21
-300.350490555955
 31
0.0
  0
LINE
  5
B54C
330
18
100
AcDbEntity
  8
01
100
AcDbLine
 10
5076.533063311208
 20
-300.350490555955
 30
0.0
 11
5075.66731013738
 21
-300.4206352092753
 31
0.0
  0
LINE
  5
B54D
330
18
100
AcDbEntity
  8
01
100
AcDbLine
 10
5075.66731013738
 20
-300.4206352092753
 30
0.0
 11
5074.8448766657
 21
-300.4952964641581
 31
0.0
  0
LINE
  5
B54E
330
18
100
AcDbEntity
  8
01
100
AcDbLine
 10
5074.8448766657
 20
-300.4952964641581
 30
0.0
 11
5074.078885454763
 21
-300.573635087205
 31
0.0
  0
LINE
  5
B54F
330
18
100
AcDbEntity
  8
01
100
AcDbLine
 10
5074.078885454763
 20
-300.573635087205
 30
0.0
 11
5073.386121172536
 21
-300.6539420940409
 31
0.0
  0
LINE
  5
B550
330
18
100
AcDbEntity
  8
01
100
AcDbLine
 10
5073.386121172536
 20
-300.6539420940409
 30
0.0
 11
5072.785565752614
 21
-300.7329673625956
 31
0.0
  0
LINE
  5
B551
330
18
100
AcDbEntity
  8
01
100
AcDbLine
 10
5072.785565752614
 20
-300.7329673625956
 30
0.0
 11
5072.29751338445
 21
-300.8060722209941
 31
0.0
  0
LINE
  5
B552
330
18
100
AcDbEntity
  8
01
100
AcDbLine
 10
5072.29751338445
 20
-300.8060722209941
 30
0.0
 11
5071.939710039724
 21
-300.8669853069316
 31
0.0
  0
LINE
  5
B553
330
18
100
AcDbEntity
  8
01
100
AcDbLine
 10
5071.939710039724
 20
-300.8669853069316
 30
0.0
 11
5071.723050493825
 21
-300.9087180950175
 31
0.0
  0
LINE
  5
B554
330
18
100
AcDbEntity
  8
01
100
AcDbLine
 10
5071.723050493825
 20
-300.9087180950175
 30
0.0
 11
5071.647794146169
 21
-300.9248771526347
 31
0.0
  0
LINE
  5
B555
330
18
100
AcDbEntity
  8
01
100
AcDbLine
 10
5186.202893633474
 20
-294.3290214397441
 30
0.0
 11
5186.164838213552
 21
-293.6159782268534
 31
0.0
  0
LINE
  5
B556
330
18
100
AcDbEntity
  8
01
100
AcDbLine
 10
5186.164838213552
 20
-293.6159782268534
 30
0.0
 11
5186.093305010427
 21
-292.9070548870097
 31
0.0
  0
LINE
  5
B557
330
18
100
AcDbEntity
  8
01
100
AcDbLine
 10
5186.093305010427
 20
-292.9070548870097
 30
0.0
 11
5186.00373591863
 21
-292.2019615032206
 31
0.0
  0
LINE
  5
B558
330
18
100
AcDbEntity
  8
01
100
AcDbLine
 10
5186.00373591863
 20
-292.2019615032206
 30
0.0
 11
5185.878400225271
 21
-291.3444022991191
 31
0.0
  0
LINE
  5
B559
330
18
100
AcDbEntity
  8
01
100
AcDbLine
 10
5183.736798662771
 20
-289.6534232952128
 30
0.0
 11
5184.192517656911
 21
-289.6892051555644
 31
0.0
  0
LINE
  5
B55A
330
18
100
AcDbEntity
  8
01
100
AcDbLine
 10
5184.192517656911
 20
-289.6892051555644
 30
0.0
 11
5184.647839922536
 21
-289.8083915569316
 31
0.0
  0
LINE
  5
B55B
330
18
100
AcDbEntity
  8
01
100
AcDbLine
 10
5184.647839922536
 20
-289.8083915569316
 30
0.0
 11
5185.081616778005
 21
-290.0353660442362
 31
0.0
  0
LINE
  5
B55C
330
18
100
AcDbEntity
  8
01
100
AcDbLine
 10
5185.081616778005
 20
-290.0353660442362
 30
0.0
 11
5185.453229326833
 21
-290.3770408489237
 31
0.0
  0
LINE
  5
B55D
330
18
100
AcDbEntity
  8
01
100
AcDbLine
 10
5185.453229326833
 20
-290.3770408489237
 30
0.0
 11
5185.723737139333
 21
-290.8132743694316
 31
0.0
  0
LINE
  5
B55E
330
18
100
AcDbEntity
  8
01
100
AcDbLine
 10
5185.723737139333
 20
-290.8132743694316
 30
0.0
 11
5185.878400225271
 21
-291.34438704033
 31
0.0
  0
LINE
  5
B55F
330
18
100
AcDbEntity
  8
01
100
AcDbLine
 10
5084.119122881521
 20
-288.6911582805644
 30
0.0
 11
5091.755017656911
 21
-288.7993430950175
 31
0.0
  0
LINE
  5
B560
330
18
100
AcDbEntity
  8
01
100
AcDbLine
 10
5091.755017656911
 20
-288.7993430950175
 30
0.0
 11
5099.398282427419
 21
-288.8569908000956
 31
0.0
  0
LINE
  5
B561
330
18
100
AcDbEntity
  8
01
100
AcDbLine
 10
5099.398282427419
 20
-288.8569908000956
 30
0.0
 11
5107.042615313161
 21
-288.9205894329081
 31
0.0
  0
LINE
  5
B562
330
18
100
AcDbEntity
  8
01
100
AcDbLine
 10
5107.042615313161
 20
-288.9205894329081
 30
0.0
 11
5114.687299151052
 21
-288.9914970256816
 31
0.0
  0
LINE
  5
B563
330
18
100
AcDbEntity
  8
01
100
AcDbLine
 10
5114.687299151052
 20
-288.9914970256816
 30
0.0
 11
5122.332257647146
 21
-289.0661887981425
 31
0.0
  0
LINE
  5
B564
330
18
100
AcDbEntity
  8
01
100
AcDbLine
 10
5122.332257647146
 20
-289.0661887981425
 30
0.0
 11
5129.977277178396
 21
-289.1425437786112
 31
0.0
  0
LINE
  5
B565
330
18
100
AcDbEntity
  8
01
100
AcDbLine
 10
5129.977277178396
 20
-289.1425437786112
 30
0.0
 11
5137.622083086599
 21
-289.2193717815409
 31
0.0
  0
LINE
  5
B566
330
18
100
AcDbEntity
  8
01
100
AcDbLine
 10
5137.622083086599
 20
-289.2193717815409
 30
0.0
 11
5145.26643123113
 21
-289.2963218547831
 31
0.0
  0
LINE
  5
B567
330
18
100
AcDbEntity
  8
01
100
AcDbLine
 10
5145.26643123113
 20
-289.2963218547831
 30
0.0
 11
5152.910077471364
 21
-289.3731803752909
 31
0.0
  0
LINE
  5
B568
330
18
100
AcDbEntity
  8
01
100
AcDbLine
 10
5152.910077471364
 20
-289.3731803752909
 30
0.0
 11
5160.552853960622
 21
-289.4499168254862
 31
0.0
  0
LINE
  5
B569
330
18
100
AcDbEntity
  8
01
100
AcDbLine
 10
5160.552853960622
 20
-289.4499168254862
 30
0.0
 11
5168.194592852224
 21
-289.5262260295878
 31
0.0
  0
LINE
  5
B56A
330
18
100
AcDbEntity
  8
01
100
AcDbLine
 10
5168.194592852224
 20
-289.5262260295878
 30
0.0
 11
5175.835095781911
 21
-289.5982017375956
 31
0.0
  0
LINE
  5
B56B
330
18
100
AcDbEntity
  8
01
100
AcDbLine
 10
5175.835095781911
 20
-289.5982017375956
 30
0.0
 11
5183.736066240896
 21
-289.6534232952128
 31
0.0
  0
LINE
  5
B56C
330
18
100
AcDbEntity
  8
01
100
AcDbLine
 10
5084.117062944997
 20
-288.6911125041972
 30
0.0
 11
5083.146466631521
 21
-288.6629752971659
 31
0.0
  0
LINE
  5
B56D
330
18
100
AcDbEntity
  8
01
100
AcDbLine
 10
5083.146466631521
 20
-288.6629752971659
 30
0.0
 11
5082.176373858083
 21
-288.6274070598612
 31
0.0
  0
LINE
  5
B56E
330
18
100
AcDbEntity
  8
01
100
AcDbLine
 10
5082.176373858083
 20
-288.6274070598612
 30
0.0
 11
5081.209103960622
 21
-288.5861930706034
 31
0.0
  0
LINE
  5
B56F
330
18
100
AcDbEntity
  8
01
100
AcDbLine
 10
5081.209103960622
 20
-288.5861930706034
 30
0.0
 11
5080.247342486013
 21
-288.5400352336894
 31
0.0
  0
LINE
  5
B570
330
18
100
AcDbEntity
  8
01
100
AcDbLine
 10
5080.247342486013
 20
-288.5400352336894
 30
0.0
 11
5079.294278521169
 21
-288.4890861370097
 31
0.0
  0
LINE
  5
B571
330
18
100
AcDbEntity
  8
01
100
AcDbLine
 10
5079.294278521169
 20
-288.4890861370097
 30
0.0
 11
5078.353925127614
 21
-288.4333762981425
 31
0.0
  0
LINE
  5
B572
330
18
100
AcDbEntity
  8
01
100
AcDbLine
 10
5078.353925127614
 20
-288.4333762981425
 30
0.0
 11
5077.431348223317
 21
-288.3728904582987
 31
0.0
  0
LINE
  5
B573
330
18
100
AcDbEntity
  8
01
100
AcDbLine
 10
5077.431348223317
 20
-288.3728904582987
 30
0.0
 11
5076.533063311208
 21
-288.3075523235331
 31
0.0
  0
LINE
  5
B574
330
18
100
AcDbEntity
  8
01
100
AcDbLine
 10
5076.533063311208
 20
-288.3075523235331
 30
0.0
 11
5075.66731013738
 21
-288.2373924114237
 31
0.0
  0
LINE
  5
B575
330
18
100
AcDbEntity
  8
01
100
AcDbLine
 10
5075.66731013738
 20
-288.2373924114237
 30
0.0
 11
5074.8448766657
 21
-288.16274641533
 31
0.0
  0
LINE
  5
B576
330
18
100
AcDbEntity
  8
01
100
AcDbLine
 10
5074.8448766657
 20
-288.16274641533
 30
0.0
 11
5074.078885454763
 21
-288.0843925334941
 31
0.0
  0
LINE
  5
B577
330
18
100
AcDbEntity
  8
01
100
AcDbLine
 10
5074.078885454763
 20
-288.0843925334941
 30
0.0
 11
5073.386121172536
 21
-288.0040855266581
 31
0.0
  0
LINE
  5
B578
330
18
100
AcDbEntity
  8
01
100
AcDbLine
 10
5073.386121172536
 20
-288.0040855266581
 30
0.0
 11
5072.785565752614
 21
-287.9250602581034
 31
0.0
  0
LINE
  5
B579
330
18
100
AcDbEntity
  8
01
100
AcDbLine
 10
5072.785565752614
 20
-287.9250602581034
 30
0.0
 11
5072.29751338445
 21
-287.851955399705
 31
0.0
  0
LINE
  5
B57A
330
18
100
AcDbEntity
  8
01
100
AcDbLine
 10
5072.29751338445
 20
-287.851955399705
 30
0.0
 11
5071.939710039724
 21
-287.7910423137675
 31
0.0
  0
LINE
  5
B57B
330
18
100
AcDbEntity
  8
01
100
AcDbLine
 10
5071.939710039724
 20
-287.7910423137675
 30
0.0
 11
5071.723050493825
 21
-287.7493247844706
 31
0.0
  0
LINE
  5
B57C
330
18
100
AcDbEntity
  8
01
100
AcDbLine
 10
5071.723050493825
 20
-287.7493247844706
 30
0.0
 11
5071.647794146169
 21
-287.7331657268534
 31
0.0
  0
LINE
  5
B57D
330
18
100
AcDbEntity
  8
01
100
AcDbLine
 10
5186.202893633474
 20
-294.3290214397441
 30
0.0
 11
5186.164838213552
 21
-295.0420493938456
 31
0.0
  0
LINE
  5
B57E
330
18
100
AcDbEntity
  8
01
100
AcDbLine
 10
5186.164838213552
 20
-295.0420493938456
 30
0.0
 11
5186.093305010427
 21
-295.7509727336894
 31
0.0
  0
LINE
  5
B57F
330
18
100
AcDbEntity
  8
01
100
AcDbLine
 10
5186.093305010427
 20
-295.7509727336894
 30
0.0
 11
5186.00373591863
 21
-296.4560661174784
 31
0.0
  0
LINE
  5
B580
330
18
100
AcDbEntity
  8
01
100
AcDbLine
 10
5186.00373591863
 20
-296.4560661174784
 30
0.0
 11
5185.878400225271
 21
-297.31362532158
 31
0.0
  0
LINE
  5
B581
330
18
100
AcDbEntity
  8
01
100
AcDbLine
 10
5183.736798662771
 20
-299.0046043254862
 30
0.0
 11
5184.192517656911
 21
-298.9688377239237
 31
0.0
  0
LINE
  5
B582
330
18
100
AcDbEntity
  8
01
100
AcDbLine
 10
5184.192517656911
 20
-298.9688377239237
 30
0.0
 11
5184.647839922536
 21
-298.8496360637675
 31
0.0
  0
LINE
  5
B583
330
18
100
AcDbEntity
  8
01
100
AcDbLine
 10
5184.647839922536
 20
-298.8496360637675
 30
0.0
 11
5185.081616778005
 21
-298.6226768352519
 31
0.0
  0
LINE
  5
B584
330
18
100
AcDbEntity
  8
01
100
AcDbLine
 10
5185.081616778005
 20
-298.6226768352519
 30
0.0
 11
5185.453229326833
 21
-298.2809867717753
 31
0.0
  0
LINE
  5
B585
330
18
100
AcDbEntity
  8
01
100
AcDbLine
 10
5185.453229326833
 20
-298.2809867717753
 30
0.0
 11
5185.723737139333
 21
-297.8447685100566
 31
0.0
  0
LINE
  5
B586
330
18
100
AcDbEntity
  8
01
100
AcDbLine
 10
5185.723737139333
 20
-297.8447685100566
 30
0.0
 11
5185.878400225271
 21
-297.3136405803691
 31
0.0
  0
LINE
  5
B587
330
18
100
AcDbEntity
  8
01
100
AcDbLine
 10
5084.119122881521
 20
-299.9668693401347
 30
0.0
 11
5091.755017656911
 21
-299.8586845256816
 31
0.0
  0
LINE
  5
B588
330
18
100
AcDbEntity
  8
01
100
AcDbLine
 10
5091.755017656911
 20
-299.8586845256816
 30
0.0
 11
5099.398282427419
 21
-299.8010368206034
 31
0.0
  0
LINE
  5
B589
330
18
100
AcDbEntity
  8
01
100
AcDbLine
 10
5099.398282427419
 20
-299.8010368206034
 30
0.0
 11
5107.042615313161
 21
-299.73745344658
 31
0.0
  0
LINE
  5
B58A
330
18
100
AcDbEntity
  8
01
100
AcDbLine
 10
5107.042615313161
 20
-299.73745344658
 30
0.0
 11
5114.687299151052
 21
-299.6665458538066
 31
0.0
  0
LINE
  5
B58B
330
18
100
AcDbEntity
  8
01
100
AcDbLine
 10
5114.687299151052
 20
-299.6665458538066
 30
0.0
 11
5122.332257647146
 21
-299.5918388225566
 31
0.0
  0
LINE
  5
B58C
330
18
100
AcDbEntity
  8
01
100
AcDbLine
 10
5122.332257647146
 20
-299.5918388225566
 30
0.0
 11
5129.977277178396
 21
-299.5154838420878
 31
0.0
  0
LINE
  5
B58D
330
18
100
AcDbEntity
  8
01
100
AcDbLine
 10
5129.977277178396
 20
-299.5154838420878
 30
0.0
 11
5137.622083086599
 21
-299.4386710979472
 31
0.0
  0
LINE
  5
B58E
330
18
100
AcDbEntity
  8
01
100
AcDbLine
 10
5137.622083086599
 20
-299.4386710979472
 30
0.0
 11
5145.26643123113
 21
-299.361721024705
 31
0.0
  0
LINE
  5
B58F
330
18
100
AcDbEntity
  8
01
100
AcDbLine
 10
5145.26643123113
 20
-299.361721024705
 30
0.0
 11
5152.910077471364
 21
-299.2848625041972
 31
0.0
  0
LINE
  5
B590
330
18
100
AcDbEntity
  8
01
100
AcDbLine
 10
5152.910077471364
 20
-299.2848625041972
 30
0.0
 11
5160.552853960622
 21
-299.2081260540019
 31
0.0
  0
LINE
  5
B591
330
18
100
AcDbEntity
  8
01
100
AcDbLine
 10
5160.552853960622
 20
-299.2081260540019
 30
0.0
 11
5168.194592852224
 21
-299.1318168499003
 31
0.0
  0
LINE
  5
B592
330
18
100
AcDbEntity
  8
01
100
AcDbLine
 10
5168.194592852224
 20
-299.1318168499003
 30
0.0
 11
5175.835095781911
 21
-299.0598258831034
 31
0.0
  0
LINE
  5
B593
330
18
100
AcDbEntity
  8
01
100
AcDbLine
 10
5175.835095781911
 20
-299.0598258831034
 30
0.0
 11
5183.736066240896
 21
-299.0046195842753
 31
0.0
  0
LINE
  5
B594
330
18
100
AcDbEntity
  8
01
  6
BYBLOCK
100
AcDbLine
 10
5030.491239882569
 20
-271.9278653841723
 30
0.0
 11
5031.187907776569
 21
-269.3278653841723
 31
0.0
  0
LINE
  5
B595
330
18
100
AcDbEntity
  8
01
  6
BYBLOCK
100
AcDbLine
 10
5031.187907776569
 20
-269.3278653841723
 30
0.0
 11
5031.884575670569
 21
-271.9278653841723
 31
0.0
  0
LINE
  5
B596
330
18
100
AcDbEntity
  8
01
  6
BYBLOCK
100
AcDbLine
 10
5031.187907776569
 20
-269.3278653841723
 30
0.0
 11
5031.187907776569
 21
-271.9278653841723
 31
0.0
  0
LINE
  5
B597
330
18
100
AcDbEntity
  8
01
  6
BYBLOCK
100
AcDbLine
 10
5031.884575670569
 20
-316.7278653841714
 30
0.0
 11
5031.187907776569
 21
-319.3278653841714
 31
0.0
  0
LINE
  5
B598
330
18
100
AcDbEntity
  8
01
  6
BYBLOCK
100
AcDbLine
 10
5031.187907776569
 20
-319.3278653841714
 30
0.0
 11
5030.491239882569
 21
-316.7278653841714
 31
0.0
  0
LINE
  5
B599
330
18
100
AcDbEntity
  8
01
  6
BYBLOCK
100
AcDbLine
 10
5031.187907776569
 20
-319.3278653841714
 30
0.0
 11
5031.187907776569
 21
-316.7278653841714
 31
0.0
  0
TEXT
  5
B59A
330
18
100
AcDbEntity
  8
01
  6
CONTINUOUS
100
AcDbText
 10
5030.277907776568
 20
-302.5273682907718
 30
0.0
 40
4.55
  1
φ50
 50
90.0
100
AcDbText
1001
ACAD
1000
DSTYLE
1002
{
1070
     3
1000
φ<>
1070
    40
1040
1.3
1070
    45
1040
0.5
1002
}
  0
LINE
  5
B59B
330
18
100
AcDbEntity
  8
01
  6
BYBLOCK
100
AcDbLine
 10
5030.491239882569
 20
-271.9278653841723
 30
0.0
 11
5031.187907776569
 21
-269.3278653841723
 31
0.0
  0
LINE
  5
B59C
330
18
100
AcDbEntity
  8
01
  6
BYBLOCK
100
AcDbLine
 10
5031.187907776569
 20
-269.3278653841723
 30
0.0
 11
5031.884575670569
 21
-271.9278653841723
 31
0.0
  0
LINE
  5
B59D
330
18
100
AcDbEntity
  8
01
  6
BYBLOCK
100
AcDbLine
 10
5031.187907776569
 20
-269.3278653841723
 30
0.0
 11
5031.187907776569
 21
-271.9278653841723
 31
0.0
  0
LINE
  5
B59E
330
18
100
AcDbEntity
  8
01
  6
BYBLOCK
100
AcDbLine
 10
5031.884575670569
 20
-316.7278653841714
 30
0.0
 11
5031.187907776569
 21
-319.3278653841714
 31
0.0
  0
LINE
  5
B59F
330
18
100
AcDbEntity
  8
01
  6
BYBLOCK
100
AcDbLine
 10
5031.187907776569
 20
-319.3278653841714
 30
0.0
 11
5030.491239882569
 21
-316.7278653841714
 31
0.0
  0
LINE
  5
B5A0
330
18
100
AcDbEntity
  8
01
  6
BYBLOCK
100
AcDbLine
 10
5031.187907776569
 20
-319.3278653841714
 30
0.0
 11
5031.187907776569
 21
-316.7278653841714
 31
0.0
  0
TEXT
  5
B5A1
330
18
100
AcDbEntity
  8
01
  6
CONTINUOUS
100
AcDbText
 10
5030.277907776568
 20
-302.5273682907718
 30
0.0
 40
4.55
  1
φ50
 50
90.0
100
AcDbText
1001
ACAD
1000
DSTYLE
1002
{
1070
     3
1000
φ<>
1070
    40
1040
1.3
1070
    45
1040
0.5
1002
}
  0
LINE
  5
B5A2
330
18
100
AcDbEntity
  8
1DIM
100
AcDbLine
 10
5066.187907776569
 20
-155.829183697275
 30
0.0
 11
5066.187907776569
 21
-220.1276284058322
 31
0.0
1001
ACAD
1000
DSTYLE
1002
{
1070
    45
1040
0.5
1070
    40
1040
1.3
1002
}
  0
LINE
  5
B5A3
330
18
100
AcDbEntity
  8
1DIM
100
AcDbLine
 10
5186.188766083454
 20
-185.202353614243
 30
0.0
 11
5186.188766083454
 21
-220.1276284058322
 31
0.0
1001
ACAD
1000
DSTYLE
1002
{
1070
    45
1040
0.5
1070
    40
1040
1.3
1002
}
  0
LINE
  5
B5A4
330
18
100
AcDbEntity
  8
1DIM
100
AcDbLine
 10
5068.787907776569
 20
-218.8276284058322
 30
0.0
 11
5183.588766083453
 21
-218.8276284058322
 31
0.0
1001
ACAD
1000
DSTYLE
1002
{
1070
    45
1040
0.5
1070
    40
1040
1.3
1002
}
  0
LINE
  5
B5A8
330
18
100
AcDbEntity
  8
1DIM
100
AcDbLine
 10
5041.187923271066
 20
-135.829306739243
 30
0.0
 11
5041.187923271066
 21
-230.129183697275
 31
0.0
1001
ACAD
1000
DSTYLE
1002
{
1070
    45
1040
0.5
1070
    40
1040
1.3
1002
}
  0
LINE
  5
B5A9
330
18
100
AcDbEntity
  8
1DIM
100
AcDbLine
 10
5186.188766083454
 20
-185.202353614243
 30
0.0
 11
5186.188766083454
 21
-230.129183697275
 31
0.0
1001
ACAD
1000
DSTYLE
1002
{
1070
    45
1040
0.5
1070
    40
1040
1.3
1002
}
  0
LINE
  5
B5AA
330
18
100
AcDbEntity
  8
1DIM
100
AcDbLine
 10
5043.787923271067
 20
-228.829183697275
 30
0.0
 11
5183.588766083453
 21
-228.829183697275
 31
0.0
1001
ACAD
1000
DSTYLE
1002
{
1070
    45
1040
0.5
1070
    40
1040
1.3
1002
}
  0
LINE
  5
B5AE
330
18
100
AcDbEntity
  8
1DIM
100
AcDbLine
 10
5127.841127906366
 20
-165.6730440022868
 30
0.0
 11
5207.488766083454
 21
-165.6730440022868
 31
0.0
1001
ACAD
1000
DSTYLE
1002
{
1070
    45
1040
0.5
1070
    40
1040
1.3
1002
}
  0
LINE
  5
B5AF
330
18
100
AcDbEntity
  8
1DIM
100
AcDbLine
 10
5168.943055773917
 20
-134.329183697275
 30
0.0
 11
5207.488766083454
 21
-134.329183697275
 31
0.0
1001
ACAD
1000
DSTYLE
1002
{
1070
    45
1040
0.5
1070
    40
1040
1.3
1002
}
  0
LINE
  5
B5B0
330
18
100
AcDbEntity
  8
1DIM
100
AcDbLine
 10
5206.188766083454
 20
-163.0730440022868
 30
0.0
 11
5206.188766083454
 21
-136.929183697275
 31
0.0
1001
ACAD
1000
DSTYLE
1002
{
1070
    45
1040
0.5
1070
    40
1040
1.3
1002
}
  0
LINE
  5
B5B4
330
18
100
AcDbEntity
  8
1DIM
100
AcDbLine
 10
5113.689623088703
 20
-193.829183697275
 30
0.0
 11
5217.488766083454
 21
-193.829183697275
 31
0.0
1001
ACAD
1000
DSTYLE
1002
{
1070
    45
1040
0.5
1070
    40
1040
1.3
1002
}
  0
LINE
  5
B5B5
330
18
100
AcDbEntity
  8
1DIM
100
AcDbLine
 10
5168.943055773917
 20
-134.329183697275
 30
0.0
 11
5217.488766083454
 21
-134.329183697275
 31
0.0
1001
ACAD
1000
DSTYLE
1002
{
1070
    45
1040
0.5
1070
    40
1040
1.3
1002
}
  0
LINE
  5
B5B6
330
18
100
AcDbEntity
  8
1DIM
100
AcDbLine
 10
5216.188766083454
 20
-191.229183697275
 30
0.0
 11
5216.188766083454
 21
-136.929183697275
 31
0.0
1001
ACAD
1000
DSTYLE
1002
{
1070
    45
1040
0.5
1070
    40
1040
1.3
1002
}
  0
LINE
  5
B5BA
330
18
100
AcDbEntity
  8
1DIM
100
AcDbLine
 10
5183.736066240896
 20
-299.0046195842753
 30
0.0
 11
5207.488766083454
 21
-299.0046195842753
 31
0.0
1001
ACAD
1000
DSTYLE
1002
{
1070
    45
1040
0.5
1070
    40
1040
1.3
1002
}
  0
LINE
  5
B5BB
330
18
100
AcDbEntity
  8
1DIM
100
AcDbLine
 10
5183.736066240896
 20
-289.6534843303691
 30
0.0
 11
5207.488766083454
 21
-289.6534843303691
 31
0.0
1001
ACAD
1000
DSTYLE
1002
{
1070
    45
1040
0.5
1070
    40
1040
1.3
1002
}
  0
LINE
  5
B5BC
330
18
100
AcDbEntity
  8
1DIM
100
AcDbLine
 10
5206.188766083454
 20
-289.6534843303691
 30
0.0
 11
5206.188766083454
 21
-275.7001509970365
 31
0.0
1001
ACAD
1000
DSTYLE
1002
{
1070
    45
1040
0.5
1070
    40
1040
1.3
1002
}
  0
LINE
  5
B5BD
330
18
100
AcDbEntity
  8
1DIM
100
AcDbLine
 10
5206.188766083454
 20
-296.4046195842753
 30
0.0
 11
5206.188766083454
 21
-292.2534843303691
 31
0.0
1001
ACAD
1000
DSTYLE
1002
{
1070
    45
1040
0.5
1070
    40
1040
1.3
1002
}
  0
LINE
  5
B5C1
330
18
100
AcDbEntity
  8
0
  6
BYBLOCK
100
AcDbLine
 10
5068.787907776569
 20
-219.5242962998322
 30
0.0
 11
5066.187907776569
 21
-218.8276284058322
 31
0.0
  0
LINE
  5
B5C2
330
18
100
AcDbEntity
  8
0
  6
BYBLOCK
100
AcDbLine
 10
5066.187907776569
 20
-218.8276284058322
 30
0.0
 11
5068.787907776569
 21
-218.1309605118322
 31
0.0
  0
LINE
  5
B5C3
330
18
100
AcDbEntity
  8
0
  6
BYBLOCK
100
AcDbLine
 10
5066.187907776569
 20
-218.8276284058322
 30
0.0
 11
5068.787907776569
 21
-218.8276284058322
 31
0.0
  0
LINE
  5
B5C4
330
18
100
AcDbEntity
  8
0
  6
BYBLOCK
100
AcDbLine
 10
5183.588766083453
 20
-218.1309605118322
 30
0.0
 11
5186.188766083454
 21
-218.8276284058322
 31
0.0
  0
LINE
  5
B5C5
330
18
100
AcDbEntity
  8
0
  6
BYBLOCK
100
AcDbLine
 10
5186.188766083454
 20
-218.8276284058322
 30
0.0
 11
5183.588766083453
 21
-219.5242962998322
 31
0.0
  0
LINE
  5
B5C6
330
18
100
AcDbEntity
  8
0
  6
BYBLOCK
100
AcDbLine
 10
5186.188766083454
 20
-218.8276284058322
 30
0.0
 11
5183.588766083453
 21
-218.8276284058322
 31
0.0
  0
TEXT
  5
B5C7
330
18
100
AcDbEntity
  8
1DIM
  6
CONTINUOUS
100
AcDbText
 10
5121.164378596678
 20
-217.9176284058322
 30
0.0
 40
4.55
  1
120
100
AcDbText
1001
ACAD
1000
DSTYLE
1002
{
1070
    45
1040
0.5
1070
    40
1040
1.3
1002
}
  0
LINE
  5
B5C8
330
18
100
AcDbEntity
  8
0
  6
BYBLOCK
100
AcDbLine
 10
5043.787923271067
 20
-229.525851591275
 30
0.0
 11
5041.187923271066
 21
-228.829183697275
 31
0.0
  0
LINE
  5
B5C9
330
18
100
AcDbEntity
  8
0
  6
BYBLOCK
100
AcDbLine
 10
5041.187923271066
 20
-228.829183697275
 30
0.0
 11
5043.787923271067
 21
-228.132515803275
 31
0.0
  0
LINE
  5
B5CA
330
18
100
AcDbEntity
  8
0
  6
BYBLOCK
100
AcDbLine
 10
5041.187923271066
 20
-228.829183697275
 30
0.0
 11
5043.787923271067
 21
-228.829183697275
 31
0.0
  0
LINE
  5
B5CB
330
18
100
AcDbEntity
  8
0
  6
BYBLOCK
100
AcDbLine
 10
5183.588766083453
 20
-228.132515803275
 30
0.0
 11
5186.188766083454
 21
-228.829183697275
 31
0.0
  0
LINE
  5
B5CC
330
18
100
AcDbEntity
  8
0
  6
BYBLOCK
100
AcDbLine
 10
5186.188766083454
 20
-228.829183697275
 30
0.0
 11
5183.588766083453
 21
-229.525851591275
 31
0.0
  0
LINE
  5
B5CD
330
18
100
AcDbEntity
  8
0
  6
BYBLOCK
100
AcDbLine
 10
5186.188766083454
 20
-228.829183697275
 30
0.0
 11
5183.588766083453
 21
-228.829183697275
 31
0.0
  0
TEXT
  5
B5CE
330
18
100
AcDbEntity
  8
1DIM
  6
CONTINUOUS
100
AcDbText
 10
5108.380011343927
 20
-227.919183697275
 30
0.0
 40
4.55
  1
145
100
AcDbText
1001
ACAD
1000
DSTYLE
1002
{
1070
    45
1040
0.5
1070
    40
1040
1.3
1002
}
  0
LINE
  5
B5CF
330
18
100
AcDbEntity
  8
0
  6
BYBLOCK
100
AcDbLine
 10
5206.885433977453
 20
-163.0730440022868
 30
0.0
 11
5206.188766083454
 21
-165.6730440022868
 31
0.0
  0
LINE
  5
B5D0
330
18
100
AcDbEntity
  8
0
  6
BYBLOCK
100
AcDbLine
 10
5206.188766083454
 20
-165.6730440022868
 30
0.0
 11
5205.492098189454
 21
-163.0730440022868
 31
0.0
  0
LINE
  5
B5D1
330
18
100
AcDbEntity
  8
0
  6
BYBLOCK
100
AcDbLine
 10
5206.188766083454
 20
-165.6730440022868
 30
0.0
 11
5206.188766083454
 21
-163.0730440022868
 31
0.0
  0
LINE
  5
B5D2
330
18
100
AcDbEntity
  8
0
  6
BYBLOCK
100
AcDbLine
 10
5205.492098189454
 20
-136.929183697275
 30
0.0
 11
5206.188766083454
 21
-134.329183697275
 31
0.0
  0
LINE
  5
B5D3
330
18
100
AcDbEntity
  8
0
  6
BYBLOCK
100
AcDbLine
 10
5206.188766083454
 20
-134.329183697275
 30
0.0
 11
5206.885433977453
 21
-136.929183697275
 31
0.0
  0
LINE
  5
B5D4
330
18
100
AcDbEntity
  8
0
  6
BYBLOCK
100
AcDbLine
 10
5206.188766083454
 20
-134.329183697275
 30
0.0
 11
5206.188766083454
 21
-136.929183697275
 31
0.0
  0
TEXT
  5
B5D5
330
18
100
AcDbEntity
  8
1DIM
  6
CONTINUOUS
100
AcDbText
 10
5205.278766083453
 20
-153.0344471831149
 30
0.0
 40
4.55
  1
31
 50
90.0
100
AcDbText
1001
ACAD
1000
DSTYLE
1002
{
1070
    45
1040
0.5
1070
    40
1040
1.3
1002
}
  0
LINE
  5
B5D6
330
18
100
AcDbEntity
  8
0
  6
BYBLOCK
100
AcDbLine
 10
5216.885433977453
 20
-191.229183697275
 30
0.0
 11
5216.188766083454
 21
-193.829183697275
 31
0.0
  0
LINE
  5
B5D7
330
18
100
AcDbEntity
  8
0
  6
BYBLOCK
100
AcDbLine
 10
5216.188766083454
 20
-193.829183697275
 30
0.0
 11
5215.492098189454
 21
-191.229183697275
 31
0.0
  0
LINE
  5
B5D8
330
18
100
AcDbEntity
  8
0
  6
BYBLOCK
100
AcDbLine
 10
5216.188766083454
 20
-193.829183697275
 30
0.0
 11
5216.188766083454
 21
-191.229183697275
 31
0.0
  0
LINE
  5
B5D9
330
18
100
AcDbEntity
  8
0
  6
BYBLOCK
100
AcDbLine
 10
5215.492098189454
 20
-136.929183697275
 30
0.0
 11
5216.188766083454
 21
-134.329183697275
 31
0.0
  0
LINE
  5
B5DA
330
18
100
AcDbEntity
  8
0
  6
BYBLOCK
100
AcDbLine
 10
5216.188766083454
 20
-134.329183697275
 30
0.0
 11
5216.885433977453
 21
-136.929183697275
 31
0.0
  0
LINE
  5
B5DB
330
18
100
AcDbEntity
  8
0
  6
BYBLOCK
100
AcDbLine
 10
5216.188766083454
 20
-134.329183697275
 30
0.0
 11
5216.188766083454
 21
-136.929183697275
 31
0.0
  0
TEXT
  5
B5DC
330
18
100
AcDbEntity
  8
1DIM
  6
CONTINUOUS
100
AcDbText
 10
5215.278766083454
 20
-170.9210355491268
 30
0.0
 40
4.55
  1
59.5
 50
90.0
100
AcDbText
1001
ACAD
1000
DSTYLE
1002
{
1070
    45
1040
0.5
1070
    40
1040
1.3
1002
}
  0
LINE
  5
B5DD
330
18
100
AcDbEntity
  8
0
  6
BYBLOCK
100
AcDbLine
 10
5206.885433977453
 20
-296.4046195842753
 30
0.0
 11
5206.188766083454
 21
-299.0046195842753
 31
0.0
  0
LINE
  5
B5DE
330
18
100
AcDbEntity
  8
0
  6
BYBLOCK
100
AcDbLine
 10
5206.188766083454
 20
-299.0046195842753
 30
0.0
 11
5205.492098189454
 21
-296.4046195842753
 31
0.0
  0
LINE
  5
B5DF
330
18
100
AcDbEntity
  8
0
  6
BYBLOCK
100
AcDbLine
 10
5206.188766083454
 20
-299.0046195842753
 30
0.0
 11
5206.188766083454
 21
-296.4046195842753
 31
0.0
  0
LINE
  5
B5E0
330
18
100
AcDbEntity
  8
0
  6
BYBLOCK
100
AcDbLine
 10
5205.492098189454
 20
-292.2534843303691
 30
0.0
 11
5206.188766083454
 21
-289.6534843303691
 31
0.0
  0
LINE
  5
B5E1
330
18
100
AcDbEntity
  8
0
  6
BYBLOCK
100
AcDbLine
 10
5206.188766083454
 20
-289.6534843303691
 30
0.0
 11
5206.885433977453
 21
-292.2534843303691
 31
0.0
  0
LINE
  5
B5E2
330
18
100
AcDbEntity
  8
0
  6
BYBLOCK
100
AcDbLine
 10
5206.188766083454
 20
-289.6534843303691
 30
0.0
 11
5206.188766083454
 21
-292.2534843303691
 31
0.0
  0
TEXT
  5
B5E3
330
18
100
AcDbEntity
  8
1DIM
  6
CONTINUOUS
100
AcDbText
 10
5205.278766083453
 20
-285.9289241451852
 30
0.0
 40
4.55
  1
9.5
 50
90.0
100
AcDbText
1001
ACAD
1000
DSTYLE
1002
{
1070
    45
1040
0.5
1070
    40
1040
1.3
1002
}
  0
VIEWPORT
  5
57
330
15
100
AcDbEntity
 67
     1
  8
0
100
AcDbViewport
 68
     1
 10
0.0
 20
0.0
 30
0.0
 40
555.8298653610772
 41
297.0
 68
     1
 69
     1
1001
ACAD
1000
MVIEW
1002
{
1070
    16
1010
0.0
1020
0.0
1030
0.0
1010
0.0
1020
0.0
1030
1.0
1040
0.0
1040
297.0
1040
5.728000000000009
1040
25.339
1040
50.0
1040
0.0
1040
0.0
1070
    16
1070
   100
1070
     0
1070
     1
1070
     0
1070
     0
1070
     0
1070
     0
1040
0.0
1040
0.0
1040
0.0
1040
10.0
1040
10.0
1040
10.0
1040
10.0
1070
     0
1002
{
1002
}
1002
}
  0
ENDSEC
  0
SECTION
  2
OBJECTS
  0
DICTIONARY
  5
C
330
0
100
AcDbDictionary
  3
ACAD_COLOR
350
18D
  3
ACAD_GROUP
350
D
  3
ACAD_LAYOUT
350
18E
  3
ACAD_MATERIAL
350
18C
  3
ACAD_MLEADERSTYLE
350
9583
  3
ACAD_MLINESTYLE
350
1B
  3
ACAD_PLOTSETTINGS
350
18F
  3
ACAD_SCALELIST
350
9561
  3
ACAD_VISUALSTYLE
350
9550
  3
ACDBHEADERROUNDTRIPXREC
350
B5E4
  3
ACDBVARIABLEDICTIONARY
350
37
  3
CONTENTDICTIONARY
350
D8
  3
DRAWINGVARIABLESDICT
350
20
  3
DWGPROPS
350
B5E7
1001
ACAD
1000
TREAT_AS_HARD
1070
     0
  0
DICTIONARY
  5
96D9
330
2
100
AcDbDictionary
  3
ACAD_LAYERSTATES
360
96DA
1001
ACAD
1000
TREAT_AS_HARD
1070
     1
  0
DICTIONARY
  5
9593
330
E
100
AcDbDictionary
  3
ADSK_XREC_LAYER_RECONCILED
360
9594
1001
ACAD
1000
TREAT_AS_HARD
1070
     1
  0
DICTIONARY
  5
9595
330
29
100
AcDbDictionary
  3
ADSK_XREC_LAYER_RECONCILED
360
9596
1001
ACAD
1000
TREAT_AS_HARD
1070
     1
  0
DICTIONARY
  5
9597
330
31
100
AcDbDictionary
  3
ADSK_XREC_LAYER_RECONCILED
360
9598
1001
ACAD
1000
TREAT_AS_HARD
1070
     1
  0
DICTIONARY
  5
959D
330
243
100
AcDbDictionary
  3
ADSK_XREC_LAYER_RECONCILED
360
959E
1001
ACAD
1000
TREAT_AS_HARD
1070
     1
  0
DICTIONARY
  5
95A3
330
24E
100
AcDbDictionary
  3
ADSK_XREC_LAYER_RECONCILED
360
95A4
1001
ACAD
1000
TREAT_AS_HARD
1070
     1
  0
DICTIONARY
  5
88F
330
18
100
AcDbDictionary
  3
ACAD_SORTENTS
360
890
1001
ACAD
1000
TREAT_AS_HARD
1070
     1
  0
DICTIONARY
  5
18D
102
{ACAD_REACTORS
330
C
102
}
330
C
100
AcDbDictionary
1001
ACAD
1000
TREAT_AS_HARD
1070
     0
  0
DICTIONARY
  5
D
102
{ACAD_REACTORS
330
C
102
}
330
C
100
AcDbDictionary
1001
ACAD
1000
TREAT_AS_HARD
1070
     0
  0
DICTIONARY
  5
18E
102
{ACAD_REACTORS
330
C
102
}
330
C
100
AcDbDictionary
1001
ACAD
1000
TREAT_AS_HARD
1070
     0
  0
DICTIONARY
  5
18C
102
{ACAD_REACTORS
330
C
102
}
330
C
100
AcDbDictionary
  3
BYBLOCK
350
9540
  3
BYLAYER
350
9538
  3
GLOBAL
350
9548
1001
ACAD
1000
TREAT_AS_HARD
1070
     0
  0
DICTIONARY
  5
9583
102
{ACAD_REACTORS
330
C
102
}
330
C
100
AcDbDictionary
  3
STANDARD
350
9584
1001
ACAD
1000
TREAT_AS_HARD
1070
     0
  0
DICTIONARY
  5
1B
102
{ACAD_REACTORS
330
C
102
}
330
C
100
AcDbDictionary
  3
STANDARD
350
1C
1001
ACAD
1000
TREAT_AS_HARD
1070
     0
  0
DICTIONARY
  5
18F
102
{ACAD_REACTORS
330
C
102
}
330
C
100
AcDbDictionary
1001
ACAD
1000
TREAT_AS_HARD
1070
     0
  0
DICTIONARY
  5
9561
102
{ACAD_REACTORS
330
C
102
}
330
C
100
AcDbDictionary
  3
A0
350
9562
  3
A1
350
9563
  3
A2
350
9564
  3
A3
350
9565
  3
A4
350
9566
  3
A5
350
9567
  3
A6
350
9568
  3
A7
350
9569
  3
A8
350
956A
  3
A9
350
956B
  3
B0
350
956C
  3
B1
350
956D
  3
B2
350
956E
  3
B3
350
956F
  3
B4
350
9570
  3
B5
350
9571
  3
B6
350
9572
  3
B7
350
9573
  3
B8
350
9574
  3
B9
350
9575
  3
C0
350
9576
  3
C1
350
9577
  3
C2
350
9578
  3
C3
350
9579
  3
C4
350
957A
  3
C5
350
957B
  3
C6
350
957C
  3
C7
350
957D
  3
C8
350
957E
  3
C9
350
957F
  3
D0
350
9580
  3
D1
350
9581
  3
D2
350
9582
1001
ACAD
1000
TREAT_AS_HARD
1070
     0
  0
DICTIONARY
  5
9550
102
{ACAD_REACTORS
330
C
102
}
330
C
100
AcDbDictionary
  3
2DWIREFRAME
350
9556
  3
3D_HIDDEN
350
9558
  3
3DWIREFRAME
350
9557
  3
BASIC
350
9555
  3
BRIGHTEN
350
955C
  3
COLORCHANGE
350
9560
  3
CONCEPTUAL
350
9559
  3
DIM
350
955B
  3
EDGECOLOROFF
350
A211
  3
FACEPATTERN
350
955F
  3
FLAT
350
9551
  3
FLATWITHEDGES
350
9552
  3
GOURAUD
350
9553
  3
GOURAUDWITHEDGES
350
9554
  3
HIDDEN
350
A260
  3
JITTEROFF
350
A20F
  3
LINEPATTERN
350
955E
  3
MODELING
350
A266
  3
OVERHANGOFF
350
A210
  3
REALISTIC
350
955A
  3
SHADED
350
A265
  3
SHADED_WITH_EDGES
350
A264
  3
SHADES_OF_GRAY
350
A261
  3
SKETCHY
350
A262
  3
THICKEN
350
955D
  3
WIREFRAME
350
A25F
  3
X-RAY
350
A263
1001
ACAD
1000
TREAT_AS_HARD
1070
     0
  0
DICTIONARY
  5
B5E4
102
{ACAD_REACTORS
330
C
102
}
330
C
100
AcDbDictionary
  3
COLORDICT
350
B5E5
  3
MATERIALDICT
350
B5E6
1001
ACAD
1000
TREAT_AS_HARD
1070
     0
  0
DICTIONARY
  5
37
102
{ACAD_REACTORS
330
C
102
}
330
C
100
AcDbDictionary
  3
CANNOSCALE
350
AAE0
  3
CMLEADERSTYLE
350
9627
  3
CTABLESTYLE
350
29E
  3
DIMADEC
350
38
  3
DIMASSOC
350
1CE
  3
HIDETEXT
350
704E
  3
INDEXCTL
350
962A
  3
INTERSECTIONCOLOR
350
7052
  3
INTERSECTIONDISPLAY
350
7051
  3
MSLTSCALE
350
AB30
  3
OBSCOLOR
350
704F
  3
OBSLTYPE
350
7050
  3
PROJECTNAME
350
1CF
  3
SORTENTS
350
9629
  3
XCLIPFRAME
350
A25E
1001
ACAD
1000
TREAT_AS_HARD
1070
     0
  0
DICTIONARY
  5
D8
102
{ACAD_REACTORS
330
C
102
}
330
C
100
AcDbDictionary
1001
ACAD
1000
TREAT_AS_HARD
1070
     0
  0
DICTIONARY
  5
20
102
{ACAD_REACTORS
330
C
102
}
330
C
100
AcDbDictionary
1001
DRAWINGVARIABLESXDATA
1000
POLARANG
1000
0.261799387799149410000000
1000
POLARMODE
1000
1
1000
POLARSTYLE
1000
1
1001
ACAD
1000
TREAT_AS_HARD
1070
     0
  0
XRECORD
  5
B5E7
102
{ACAD_REACTORS
330
C
102
}
330
C
100
AcDbXrecord
  1
DWGPROPS COOKIE
  2

  3

  4

  6

  7

  8
3684
  9

300
=
301
=
302
=
303
=
304
=
305
=
306
=
307
=
308
=
309
=
 40
0.0
 41
2451318.246352917
 42
2458159.226936794
  1

 90
        0
  0
DICTIONARY
  5
96DA
102
{ACAD_REACTORS
330
96D9
102
}
330
96D9
100
AcDbDictionary
1001
ACAD
1000
TREAT_AS_HARD
1070
     0
  0
ACAD_PROXY_OBJECT
  5
9594
102
{ACAD_REACTORS
330
9593
102
}
330
9593
100
AcDbZombieObject
 90
      499
 91
      514
 93
       34
310
40C8804040
  0
ACAD_PROXY_OBJECT
  5
9596
102
{ACAD_REACTORS
330
9595
102
}
330
9595
100
AcDbZombieObject
 90
      499
 91
      514
 93
       34
310
40C8804040
  0
ACAD_PROXY_OBJECT
  5
9598
102
{ACAD_REACTORS
330
9597
102
}
330
9597
100
AcDbZombieObject
 90
      499
 91
      514
 93
       34
310
40C8804040
  0
ACAD_PROXY_OBJECT
  5
959E
102
{ACAD_REACTORS
330
959D
102
}
330
959D
100
AcDbZombieObject
 90
      499
 91
      514
 93
       34
310
40C8804040
  0
ACAD_PROXY_OBJECT
  5
95A4
102
{ACAD_REACTORS
330
95A3
102
}
330
95A3
100
AcDbZombieObject
 90
      499
 91
      514
 93
       34
310
40C8804040
  0
SORTENTSTABLE
  5
890
102
{ACAD_REACTORS
330
88F
102
}
330
88F
100
AcDbSortentsTable
330
18
331
B045
  5
B058
331
B046
  5
B059
331
B047
  5
B05A
331
B048
  5
B05D
331
B04A
  5
B07A
331
B04B
  5
B07D
331
B04C
  5
B080
331
B04D
  5
B081
331
0
  5
B085
331
0
  5
B086
331
0
  5
B088
331
0
  5
B089
331
0
  5
B08A
331
B053
  5
B329
331
B054
  5
B32A
331
B055
  5
B32B
331
B058
  5
B36D
331
B059
  5
B36E
331
B05A
  5
B36F
331
B05D
  5
B390
331
B05F
  5
B3B7
331
B061
  5
B3D3
331
B062
  5
B3D4
331
B063
  5
B3D5
331
B064
  5
B3D6
331
B067
  5
B3EB
331
B068
  5
B3EC
331
B06F
  5
B41B
331
B076
  5
B44A
331
B079
  5
B466
331
B07A
  5
B467
331
B07D
  5
B47C
331
B080
  5
B498
331
B081
  5
B499
331
B085
  5
B4E3
331
B086
  5
B4E4
331
B088
  5
B4FB
331
B089
  5
B4FC
331
B08A
  5
B4FD
331
B098
  5
B5DD
331
B099
  5
B5DE
331
B09A
  5
B5DF
331
B09B
  5
B5E0
331
B09C
  5
B5E1
331
B09D
  5
B5E2
331
B09E
  5
B5E3
331
B2EE
  5
B045
331
B2EF
  5
B046
331
B2F0
  5
B047
331
0
  5
B048
331
0
  5
B04A
331
0
  5
B04B
331
B2F4
  5
B05F
331
B2F5
  5
B061
331
B2F6
  5
B062
331
0
  5
B053
331
0
  5
B054
331
0
  5
B055
331
B2FA
  5
B32C
331
B2FB
  5
B32D
331
B2FC
  5
B32E
331
B2FD
  5
B32F
331
B2FE
  5
B330
331
B2FF
  5
B331
331
B300
  5
B332
331
B301
  5
B333
331
B302
  5
B334
331
B303
  5
B335
331
B304
  5
B336
331
B305
  5
B337
331
B306
  5
B338
331
B307
  5
B339
331
B308
  5
B33A
331
B309
  5
B33B
331
B30A
  5
B33C
331
B30B
  5
B33D
331
B30C
  5
B33E
331
B30D
  5
B33F
331
B30E
  5
B340
331
B30F
  5
B341
331
B310
  5
B342
331
B311
  5
B343
331
B312
  5
B344
331
B313
  5
B345
331
B314
  5
B346
331
B315
  5
B347
331
B316
  5
B348
331
B317
  5
B349
331
B318
  5
B34A
331
B319
  5
B34B
331
B31A
  5
B34C
331
B31B
  5
B34D
331
B31C
  5
B34E
331
B31D
  5
B34F
331
B31E
  5
B350
331
B31F
  5
B351
331
B320
  5
B352
331
B321
  5
B353
331
B322
  5
B354
331
B323
  5
B355
331
B324
  5
B356
331
B325
  5
B357
331
B326
  5
B358
331
B327
  5
B359
331
B328
  5
B35A
331
B329
  5
B35B
331
B32A
  5
B35C
331
B32B
  5
B35D
331
B32C
  5
B35E
331
B32D
  5
B35F
331
B32E
  5
B360
331
B32F
  5
B361
331
B330
  5
B362
331
B331
  5
B363
331
B332
  5
B364
331
B333
  5
B365
331
B334
  5
B366
331
B335
  5
B367
331
B336
  5
B368
331
B337
  5
B369
331
B338
  5
B36A
331
B339
  5
B36B
331
B33A
  5
B36C
331
B33B
  5
B370
331
B33C
  5
B371
331
B33D
  5
B372
331
B33E
  5
B373
331
B33F
  5
B374
331
B340
  5
B375
331
B341
  5
B376
331
B342
  5
B377
331
B343
  5
B378
331
B344
  5
B379
331
B345
  5
B37A
331
B346
  5
B37B
331
B347
  5
B37C
331
B348
  5
B37D
331
B349
  5
B37E
331
B34A
  5
B37F
331
B34B
  5
B380
331
B34C
  5
B381
331
B34D
  5
B382
331
B34E
  5
B383
331
B34F
  5
B384
331
B350
  5
B385
331
B351
  5
B386
331
B352
  5
B387
331
B353
  5
B388
331
B354
  5
B389
331
B355
  5
B38A
331
B356
  5
B38B
331
B357
  5
B38C
331
B358
  5
B38D
331
B359
  5
B38E
331
B35A
  5
B38F
331
B35B
  5
B391
331
B35C
  5
B392
331
B35D
  5
B393
331
B35E
  5
B394
331
B35F
  5
B395
331
B360
  5
B396
331
B361
  5
B397
331
B362
  5
B398
331
B363
  5
B399
331
B364
  5
B39A
331
B365
  5
B39B
331
B366
  5
B39C
331
B367
  5
B39D
331
B368
  5
B39E
331
B369
  5
B39F
331
B36A
  5
B3A0
331
B36B
  5
B3A1
331
B36C
  5
B3A2
331
B36D
  5
B3A3
331
B36E
  5
B3A4
331
B36F
  5
B3A5
331
B370
  5
B3A6
331
B371
  5
B3A7
331
B372
  5
B3A8
331
B373
  5
B3A9
331
B374
  5
B3AA
331
B375
  5
B3AB
331
B376
  5
B3AC
331
B377
  5
B3AD
331
B378
  5
B3AE
331
B379
  5
B3AF
331
B37A
  5
B3B0
331
B37B
  5
B3B1
331
B37C
  5
B3B2
331
B37D
  5
B3B3
331
B37E
  5
B3B4
331
B37F
  5
B3B5
331
B380
  5
B3B6
331
B381
  5
B3B8
331
B382
  5
B3B9
331
B383
  5
B3BA
331
B384
  5
B3BB
331
B385
  5
B3BC
331
B386
  5
B3BD
331
B387
  5
B3BE
331
B388
  5
B3BF
331
B389
  5
B3C0
331
B38A
  5
B3C1
331
B38B
  5
B3C2
331
B38C
  5
B3C3
331
B38D
  5
B3C4
331
B38E
  5
B3C5
331
B38F
  5
B3C6
331
B390
  5
B3C7
331
B391
  5
B3C8
331
B392
  5
B3C9
331
B393
  5
B3CA
331
B394
  5
B3CB
331
B395
  5
B3CC
331
B396
  5
B3CD
331
B397
  5
B3CE
331
B398
  5
B3CF
331
B399
  5
B3D0
331
B39A
  5
B3D1
331
B39B
  5
B3D2
331
B39C
  5
B3D7
331
B39D
  5
B3D8
331
B39E
  5
B3D9
331
B39F
  5
B3DA
331
B3A0
  5
B3DB
331
B3A1
  5
B3DC
331
B3A2
  5
B3DD
331
B3A3
  5
B3DE
331
B3A4
  5
B3DF
331
B3A5
  5
B3E0
331
B3A6
  5
B3E1
331
B3A7
  5
B3E2
331
B3A8
  5
B3E3
331
B3A9
  5
B3E4
331
B3AA
  5
B3E5
331
B3AB
  5
B3E6
331
B3AC
  5
B3E7
331
B3AD
  5
B3E8
331
B3AE
  5
B3E9
331
B3AF
  5
B3EA
331
B3B0
  5
B3ED
331
B3B1
  5
B3EE
331
B3B2
  5
B3EF
331
B3B3
  5
B3F0
331
B3B4
  5
B3F1
331
B3B5
  5
B3F2
331
B3B6
  5
B3F3
331
B3B7
  5
B3F4
331
B3B8
  5
B3F5
331
B3B9
  5
B3F6
331
B3BA
  5
B3F7
331
B3BB
  5
B3F8
331
B3BC
  5
B3F9
331
B3BD
  5
B3FA
331
B3BE
  5
B3FB
331
B3BF
  5
B3FC
331
B3C0
  5
B3FD
331
B3C1
  5
B3FE
331
B3C2
  5
B3FF
331
B3C3
  5
B400
331
B3C4
  5
B401
331
B3C5
  5
B402
331
B3C6
  5
B403
331
B3C7
  5
B404
331
B3C8
  5
B405
331
B3C9
  5
B406
331
B3CA
  5
B407
331
B3CB
  5
B408
331
B3CC
  5
B409
331
B3CD
  5
B40A
331
B3CE
  5
B40B
331
B3CF
  5
B40C
331
B3D0
  5
B40D
331
B3D1
  5
B40E
331
B3D2
  5
B40F
331
B3D3
  5
B410
331
B3D4
  5
B411
331
B3D5
  5
B412
331
B3D6
  5
B413
331
B3D7
  5
B414
331
B3D8
  5
B415
331
B3D9
  5
B416
331
B3DA
  5
B417
331
B3DB
  5
B418
331
B3DC
  5
B419
331
B3DD
  5
B41A
331
B3DE
  5
B41C
331
B3DF
  5
B41D
331
B3E0
  5
B41E
331
B3E1
  5
B41F
331
B3E2
  5
B420
331
B3E3
  5
B421
331
B3E4
  5
B422
331
B3E5
  5
B423
331
B3E6
  5
B424
331
B3E7
  5
B425
331
B3E8
  5
B426
331
B3E9
  5
B427
331
B3EA
  5
B428
331
B3EB
  5
B429
331
B3EC
  5
B42A
331
B3ED
  5
B42B
331
B3EE
  5
B42C
331
B3EF
  5
B42D
331
B3F0
  5
B42E
331
B3F1
  5
B42F
331
B3F2
  5
B430
331
B3F3
  5
B431
331
B3F4
  5
B432
331
B3F5
  5
B433
331
B3F6
  5
B434
331
B3F7
  5
B435
331
B3F8
  5
B436
331
B3F9
  5
B437
331
B3FA
  5
B438
331
B3FB
  5
B439
331
B3FC
  5
B43A
331
B3FD
  5
B43B
331
B3FE
  5
B43C
331
B3FF
  5
B43D
331
B400
  5
B43E
331
B401
  5
B43F
331
B402
  5
B440
331
B403
  5
B441
331
B404
  5
B442
331
B405
  5
B443
331
B406
  5
B444
331
B407
  5
B445
331
B408
  5
B446
331
B409
  5
B447
331
B40A
  5
B448
331
B40B
  5
B449
331
B40C
  5
B44B
331
B40D
  5
B44C
331
B40E
  5
B44D
331
B40F
  5
B44E
331
B410
  5
B44F
331
B411
  5
B450
331
B412
  5
B451
331
B413
  5
B452
331
B414
  5
B453
331
B415
  5
B454
331
B416
  5
B455
331
B417
  5
B456
331
B418
  5
B457
331
B419
  5
B458
331
B41A
  5
B459
331
B41B
  5
B45A
331
B41C
  5
B45B
331
B41D
  5
B45C
331
B41E
  5
B45D
331
B41F
  5
B45E
331
B420
  5
B45F
331
B421
  5
B460
331
B422
  5
B461
331
B423
  5
B462
331
B424
  5
B463
331
B425
  5
B464
331
B426
  5
B465
331
B427
  5
B468
331
B428
  5
B469
331
B429
  5
B46A
331
B42A
  5
B46B
331
B42B
  5
B46C
331
B42C
  5
B46D
331
B42D
  5
B46E
331
B42E
  5
B46F
331
B42F
  5
B470
331
B430
  5
B471
331
B431
  5
B472
331
B432
  5
B473
331
B433
  5
B474
331
B434
  5
B475
331
B435
  5
B476
331
B436
  5
B477
331
B437
  5
B478
331
B438
  5
B479
331
B439
  5
B47A
331
B43A
  5
B47B
331
B43B
  5
B47D
331
B43C
  5
B47E
331
B43D
  5
B47F
331
B43E
  5
B480
331
B43F
  5
B481
331
B440
  5
B482
331
B441
  5
B483
331
B442
  5
B484
331
B443
  5
B485
331
B444
  5
B486
331
B445
  5
B487
331
B446
  5
B488
331
B447
  5
B489
331
B448
  5
B48A
331
B449
  5
B48B
331
B44A
  5
B48C
331
B44B
  5
B48D
331
B44C
  5
B48E
331
B44D
  5
B48F
331
B44E
  5
B490
331
B44F
  5
B491
331
B450
  5
B492
331
B451
  5
B493
331
B452
  5
B494
331
B453
  5
B495
331
B454
  5
B496
331
B455
  5
B497
331
B456
  5
B49A
331
B457
  5
B49B
331
B458
  5
B49C
331
B459
  5
B49D
331
B45A
  5
B49E
331
B45B
  5
B49F
331
B45C
  5
B4A0
331
B45D
  5
B4A1
331
B45E
  5
B4A2
331
B45F
  5
B4A3
331
B460
  5
B4A4
331
B461
  5
B4A5
331
B462
  5
B4A6
331
B463
  5
B4A7
331
B464
  5
B4A8
331
B465
  5
B4A9
331
B466
  5
B4AA
331
B467
  5
B4AB
331
B468
  5
B4AC
331
B469
  5
B4AD
331
B46A
  5
B4AE
331
B46B
  5
B4AF
331
B46C
  5
B4B0
331
B46D
  5
B4B1
331
B46E
  5
B4B2
331
B46F
  5
B4B3
331
B470
  5
B4B4
331
B471
  5
B4B5
331
B472
  5
B4B6
331
B473
  5
B4B7
331
B474
  5
B4B8
331
B475
  5
B4B9
331
B476
  5
B4BA
331
B477
  5
B4BB
331
B478
  5
B4BC
331
B479
  5
B4BD
331
B47A
  5
B4BE
331
B47B
  5
B4BF
331
B47C
  5
B4C0
331
B47D
  5
B4C1
331
B47E
  5
B4C2
331
B47F
  5
B4C3
331
B480
  5
B4C4
331
B481
  5
B4C5
331
B482
  5
B4C6
331
B483
  5
B4C7
331
B484
  5
B4C8
331
B485
  5
B4C9
331
B486
  5
B4CA
331
B487
  5
B4CB
331
B488
  5
B4CC
331
B489
  5
B4CD
331
B48A
  5
B4CE
331
B48B
  5
B4CF
331
B48C
  5
B4D0
331
B48D
  5
B4D1
331
B48E
  5
B4D2
331
B48F
  5
B4D3
331
B490
  5
B4D4
331
B491
  5
B4D5
331
B492
  5
B4D6
331
B493
  5
B4D7
331
B494
  5
B4D8
331
B495
  5
B4D9
331
B496
  5
B4DA
331
B497
  5
B4DB
331
B498
  5
B4DC
331
B499
  5
B4DD
331
B49A
  5
B4DE
331
B49B
  5
B4DF
331
B49C
  5
B4E0
331
B49D
  5
B4E1
331
B49E
  5
B4E2
331
B49F
  5
B4E5
331
B4A0
  5
B4E6
331
B4A1
  5
B4E7
331
B4A2
  5
B4E8
331
B4A3
  5
B4E9
331
B4A4
  5
B4EA
331
B4A5
  5
B4EB
331
B4A6
  5
B4EC
331
B4A7
  5
B4ED
331
B4A8
  5
B4EE
331
B4A9
  5
B4EF
331
B4AA
  5
B4F0
331
B4AB
  5
B4F1
331
B4AC
  5
B4F2
331
B4AD
  5
B4F3
331
B4AE
  5
B4F4
331
B4AF
  5
B4F5
331
B4B0
  5
B4F6
331
B4B1
  5
B4F7
331
B4B2
  5
B4F8
331
B4B3
  5
B4F9
331
B4B4
  5
B4FA
331
B4B5
  5
B4FE
331
B4B6
  5
B4FF
331
B4B7
  5
B500
331
B4B8
  5
B501
331
B4B9
  5
B502
331
B4BA
  5
B503
331
B4BB
  5
B504
331
B4BC
  5
B505
331
B4BD
  5
B506
331
B4BE
  5
B507
331
B4BF
  5
B508
331
B4C0
  5
B509
331
B4C1
  5
B50A
331
B4C2
  5
B50B
331
B4C3
  5
B50C
331
B4C4
  5
B50D
331
B4C5
  5
B50E
331
B4C6
  5
B50F
331
B4C7
  5
B510
331
B4C8
  5
B511
331
B4C9
  5
B512
331
B4CA
  5
B513
331
B4CB
  5
B514
331
B4CC
  5
B515
331
B4CD
  5
B516
331
B4CE
  5
B517
331
B4CF
  5
B518
331
B4D0
  5
B519
331
B4D1
  5
B51A
331
B4D2
  5
B51B
331
B4D3
  5
B51C
331
B4D4
  5
B51D
331
B4D5
  5
B51E
331
B4D6
  5
B51F
331
B4D7
  5
B520
331
B4D8
  5
B521
331
B4D9
  5
B522
331
B4DA
  5
B523
331
B4DB
  5
B524
331
B4DC
  5
B525
331
B4DD
  5
B526
331
B4DE
  5
B527
331
B4DF
  5
B528
331
B4E0
  5
B529
331
B4E1
  5
B52A
331
B4E2
  5
B52B
331
B4E3
  5
B52C
331
B4E4
  5
B52D
331
B4E5
  5
B52E
331
B4E6
  5
B52F
331
B4E7
  5
B530
331
B4E8
  5
B531
331
B4E9
  5
B532
331
B4EA
  5
B533
331
B4EB
  5
B534
331
B4EC
  5
B535
331
B4ED
  5
B536
331
B4EE
  5
B537
331
B4EF
  5
B538
331
B4F0
  5
B539
331
B4F1
  5
B53A
331
B4F2
  5
B53B
331
B4F3
  5
B53C
331
B4F4
  5
B53D
331
B4F5
  5
B53E
331
B4F6
  5
B53F
331
B4F7
  5
B540
331
B4F8
  5
B541
331
B4F9
  5
B542
331
B4FA
  5
B543
331
B4FB
  5
B544
331
B4FC
  5
B545
331
B4FD
  5
B546
331
B4FE
  5
B547
331
B4FF
  5
B548
331
B500
  5
B549
331
B501
  5
B54A
331
B502
  5
B54B
331
B503
  5
B54C
331
B504
  5
B54D
331
B505
  5
B54E
331
B506
  5
B54F
331
B507
  5
B550
331
B508
  5
B551
331
B509
  5
B552
331
B50A
  5
B553
331
B50B
  5
B554
331
B50C
  5
B555
331
B50D
  5
B556
331
B50E
  5
B557
331
B50F
  5
B558
331
B510
  5
B559
331
B511
  5
B55A
331
B512
  5
B55B
331
B513
  5
B55C
331
B514
  5
B55D
331
B515
  5
B55E
331
B516
  5
B55F
331
B517
  5
B560
331
B518
  5
B561
331
B519
  5
B562
331
B51A
  5
B563
331
B51B
  5
B564
331
B51C
  5
B565
331
B51D
  5
B566
331
B51E
  5
B567
331
B51F
  5
B568
331
B520
  5
B569
331
B521
  5
B56A
331
B522
  5
B56B
331
B523
  5
B56C
331
B524
  5
B56D
331
B525
  5
B56E
331
B526
  5
B56F
331
B527
  5
B570
331
B528
  5
B571
331
B529
  5
B572
331
B52A
  5
B573
331
B52B
  5
B574
331
B52C
  5
B575
331
B52D
  5
B576
331
B52E
  5
B577
331
B52F
  5
B578
331
B530
  5
B579
331
B531
  5
B57A
331
B532
  5
B57B
331
B533
  5
B57C
331
B534
  5
B57D
331
B535
  5
B57E
331
B536
  5
B57F
331
B537
  5
B580
331
B538
  5
B581
331
B539
  5
B582
331
B53A
  5
B583
331
B53B
  5
B584
331
B53C
  5
B585
331
B53D
  5
B586
331
B53E
  5
B587
331
B53F
  5
B588
331
B540
  5
B589
331
B541
  5
B58A
331
B542
  5
B58B
331
B543
  5
B58C
331
B544
  5
B58D
331
B545
  5
B58E
331
B546
  5
B58F
331
B547
  5
B590
331
B548
  5
B591
331
B549
  5
B592
331
B54A
  5
B593
331
B54B
  5
B594
331
B54C
  5
B595
331
B54D
  5
B596
331
B54E
  5
B597
331
B54F
  5
B598
331
B550
  5
B599
331
B551
  5
B59A
331
B552
  5
B59B
331
B553
  5
B59C
331
B554
  5
B59D
331
B555
  5
B59E
331
B556
  5
B59F
331
B557
  5
B5A0
331
B558
  5
B5A1
331
B559
  5
B5A2
331
B55A
  5
B5A3
331
B55B
  5
B5A4
331
B55C
  5
B5A5
331
B55D
  5
B5A6
331
B55E
  5
B5A7
331
B55F
  5
B5A8
331
B560
  5
B5A9
331
B561
  5
B5AA
331
B562
  5
B5AB
331
B563
  5
B5AC
331
B564
  5
B5AD
331
B565
  5
B5AE
331
B566
  5
B5AF
331
B567
  5
B5B0
331
B568
  5
B5B1
331
B569
  5
B5B2
331
B56A
  5
B5B3
331
B56B
  5
B5B4
331
B56C
  5
B5B5
331
B56D
  5
B5B6
331
B56E
  5
B5B7
331
B56F
  5
B5B8
331
B570
  5
B5B9
331
B571
  5
B5BA
331
B572
  5
B5BB
331
B573
  5
B5BC
331
B574
  5
B5BD
331
B575
  5
B5BE
331
B576
  5
B5BF
331
B577
  5
B5C0
331
B578
  5
B5C1
331
B579
  5
B5C2
331
B57A
  5
B5C3
331
B57B
  5
B5C4
331
B57C
  5
B5C5
331
B57D
  5
B5C6
331
B57E
  5
B5C7
331
B57F
  5
B5C8
331
B580
  5
B5C9
331
B581
  5
B5CA
331
B582
  5
B5CB
331
B583
  5
B5CC
331
B584
  5
B5CD
331
B585
  5
B5CE
331
B586
  5
B5CF
331
B587
  5
B5D0
331
B588
  5
B5D1
331
B589
  5
B5D2
331
B58A
  5
B5D3
331
B58B
  5
B5D4
331
B58C
  5
B5D5
331
B58D
  5
B5D6
331
B58E
  5
B5D7
331
B58F
  5
B5D8
331
B590
  5
B5D9
331
B591
  5
B5DA
331
B592
  5
B5DB
331
B593
  5
B5DC
331
B594
  5
B04C
331
B595
  5
B04D
331
B596
  5
B04E
331
B597
  5
B04F
331
B598
  5
B050
331
B599
  5
B051
331
B59A
  5
B052
331
B59B
  5
B063
331
B59C
  5
B064
331
B59D
  5
B067
331
B59E
  5
B068
331
B59F
  5
B06F
331
B5A0
  5
B076
331
B5A1
  5
B079
331
B5A2
  5
B098
331
B5A3
  5
B099
331
B5A4
  5
B09A
331
0
  5
B09B
331
0
  5
B09C
331
0
  5
B09D
331
B5A8
  5
B2FA
331
B5A9
  5
B2FB
331
B5AA
  5
B2FF
331
0
  5
B2F0
331
0
  5
B2F1
331
0
  5
B2F2
331
B5AE
  5
B30A
331
B5AF
  5
B30B
331
B5B0
  5
B30C
331
0
  5
B2F6
331
0
  5
B2F7
331
0
  5
B2F8
331
B5B4
  5
B314
331
B5B5
  5
B315
331
B5B6
  5
B316
331
0
  5
B2FC
331
0
  5
B2FD
331
0
  5
B2FE
331
B5BA
  5
B31E
331
B5BB
  5
B31F
331
B5BC
  5
B320
331
B5BD
  5
B321
331
0
  5
B303
331
0
  5
B304
331
0
  5
B305
331
B5C1
  5
B09E
331
B5C2
  5
B2EE
331
B5C3
  5
B2EF
331
B5C4
  5
B2F3
331
B5C5
  5
B2F4
331
B5C6
  5
B2F5
331
B5C7
  5
B2F9
331
B5C8
  5
B300
331
B5C9
  5
B301
331
B5CA
  5
B302
331
B5CB
  5
B306
331
B5CC
  5
B307
331
B5CD
  5
B308
331
B5CE
  5
B309
331
B5CF
  5
B30D
331
B5D0
  5
B30E
331
B5D1
  5
B30F
331
B5D2
  5
B310
331
B5D3
  5
B311
331
B5D4
  5
B312
331
B5D5
  5
B313
331
B5D6
  5
B317
331
B5D7
  5
B318
331
B5D8
  5
B319
331
B5D9
  5
B31A
331
B5DA
  5
B31B
331
B5DB
  5
B31C
331
B5DC
  5
B31D
331
B5DD
  5
B322
331
B5DE
  5
B323
331
B5DF
  5
B324
331
B5E0
  5
B325
331
B5E1
  5
B326
331
B5E2
  5
B327
331
B5E3
  5
B328
  0
MATERIAL
  5
9540
102
{ACAD_REACTORS
330
18C
102
}
102
{ACAD_XDICTIONARY
360
B782
102
}
330
18C
100
AcDbMaterial
  1
BYBLOCK
 72
     0
 73
     2
 43
0.0208333333333333
 43
0.0
 43
0.0
 43
0.0
 43
0.0
 43
0.0208333333333333
 43
0.0
 43
0.0
 43
0.0
 43
0.0
 43
1.0
 43
0.0
 43
0.0
 43
0.0
 43
0.0
 43
1.0
 77
     0
 78
     2
 47
0.0208333333333333
 47
0.0
 47
0.0
 47
0.0
 47
0.0
 47
0.0208333333333333
 47
0.0
 47
0.0
 47
0.0
 47
0.0
 47
1.0
 47
0.0
 47
0.0
 47
0.0
 47
0.0
 47
1.0
171
     0
172
     2
 49
0.0208333333333333
 49
0.0
 49
0.0
 49
0.0
 49
0.0
 49
0.0208333333333333
 49
0.0
 49
0.0
 49
0.0
 49
0.0
 49
1.0
 49
0.0
 49
0.0
 49
0.0
 49
0.0
 49
1.0
175
     0
176
     2
142
0.0208333333333333
142
0.0
142
0.0
142
0.0
142
0.0
142
0.0208333333333333
142
0.0
142
0.0
142
0.0
142
0.0
142
1.0
142
0.0
142
0.0
142
0.0
142
0.0
142
1.0
179
     0
270
     2
144
0.0208333333333333
144
0.0
144
0.0
144
0.0
144
0.0
144
0.0208333333333333
144
0.0
144
0.0
144
0.0
144
0.0
144
1.0
144
0.0
144
0.0
144
0.0
144
0.0
144
1.0
274
     2
147
0.0208333333333333
147
0.0
147
0.0
147
0.0
147
0.0
147
0.0208333333333333
147
0.0
147
0.0
147
0.0
147
0.0
147
1.0
147
0.0
147
0.0
147
0.0
147
0.0
147
1.0
  0
MATERIAL
  5
9538
102
{ACAD_REACTORS
330
18C
102
}
102
{ACAD_XDICTIONARY
360
B784
102
}
330
18C
100
AcDbMaterial
  1
BYLAYER
 72
     0
 73
     2
 43
0.0208333333333333
 43
0.0
 43
0.0
 43
0.0
 43
0.0
 43
0.0208333333333333
 43
0.0
 43
0.0
 43
0.0
 43
0.0
 43
1.0
 43
0.0
 43
0.0
 43
0.0
 43
0.0
 43
1.0
 77
     0
 78
     2
 47
0.0208333333333333
 47
0.0
 47
0.0
 47
0.0
 47
0.0
 47
0.0208333333333333
 47
0.0
 47
0.0
 47
0.0
 47
0.0
 47
1.0
 47
0.0
 47
0.0
 47
0.0
 47
0.0
 47
1.0
171
     0
172
     2
 49
0.0208333333333333
 49
0.0
 49
0.0
 49
0.0
 49
0.0
 49
0.0208333333333333
 49
0.0
 49
0.0
 49
0.0
 49
0.0
 49
1.0
 49
0.0
 49
0.0
 49
0.0
 49
0.0
 49
1.0
175
     0
176
     2
142
0.0208333333333333
142
0.0
142
0.0
142
0.0
142
0.0
142
0.0208333333333333
142
0.0
142
0.0
142
0.0
142
0.0
142
1.0
142
0.0
142
0.0
142
0.0
142
0.0
142
1.0
179
     0
270
     2
144
0.0208333333333333
144
0.0
144
0.0
144
0.0
144
0.0
144
0.0208333333333333
144
0.0
144
0.0
144
0.0
144
0.0
144
1.0
144
0.0
144
0.0
144
0.0
144
0.0
144
1.0
274
     2
147
0.0208333333333333
147
0.0
147
0.0
147
0.0
147
0.0
147
0.0208333333333333
147
0.0
147
0.0
147
0.0
147
0.0
147
1.0
147
0.0
147
0.0
147
0.0
147
0.0
147
1.0
  0
MATERIAL
  5
9548
102
{ACAD_REACTORS
330
18C
102
}
102
{ACAD_XDICTIONARY
360
B786
102
}
330
18C
100
AcDbMaterial
  1
GLOBAL
 72
     0
 73
     2
 43
0.0208333333333333
 43
0.0
 43
0.0
 43
0.0
 43
0.0
 43
0.0208333333333333
 43
0.0
 43
0.0
 43
0.0
 43
0.0
 43
1.0
 43
0.0
 43
0.0
 43
0.0
 43
0.0
 43
1.0
 77
     0
 78
     2
 47
0.0208333333333333
 47
0.0
 47
0.0
 47
0.0
 47
0.0
 47
0.0208333333333333
 47
0.0
 47
0.0
 47
0.0
 47
0.0
 47
1.0
 47
0.0
 47
0.0
 47
0.0
 47
0.0
 47
1.0
171
     0
172
     2
 49
0.0208333333333333
 49
0.0
 49
0.0
 49
0.0
 49
0.0
 49
0.0208333333333333
 49
0.0
 49
0.0
 49
0.0
 49
0.0
 49
1.0
 49
0.0
 49
0.0
 49
0.0
 49
0.0
 49
1.0
175
     0
176
     2
142
0.0208333333333333
142
0.0
142
0.0
142
0.0
142
0.0
142
0.0208333333333333
142
0.0
142
0.0
142
0.0
142
0.0
142
1.0
142
0.0
142
0.0
142
0.0
142
0.0
142
1.0
179
     0
270
     2
144
0.0208333333333333
144
0.0
144
0.0
144
0.0
144
0.0
144
0.0208333333333333
144
0.0
144
0.0
144
0.0
144
0.0
144
1.0
144
0.0
144
0.0
144
0.0
144
0.0
144
1.0
274
     2
147
0.0208333333333333
147
0.0
147
0.0
147
0.0
147
0.0
147
0.0208333333333333
147
0.0
147
0.0
147
0.0
147
0.0
147
1.0
147
0.0
147
0.0
147
0.0
147
0.0
147
1.0
  0
ACAD_PROXY_OBJECT
  5
9584
102
{ACAD_REACTORS
330
9583
102
}
330
9583
100
AcDbZombieObject
 90
      499
 91
      511
 93
      610
310
40901902A4063FBFFFFFE000000000000002040AD7A3703D0AD73F4214DD185B99185C990000000000000104090141901A00000000000004100000000000000041025764000000000000300FC0
340
12
340
0
340
F
340
0
 94
        0
1001
ACAD_MLEADERVER
1070
     2
  0
MLINESTYLE
  5
1C
102
{ACAD_REACTORS
330
1B
102
}
330
1B
100
AcDbMlineStyle
  2
STANDARD
 70
     0
  3

 62
   256
 51
90.0
 52
90.0
 71
     2
 49
0.5
 62
   256
  6
BYLAYER
 49
-0.5
 62
   256
  6
BYLAYER
  0
ACAD_PROXY_OBJECT
  5
9562
102
{ACAD_REACTORS
330
9561
102
}
330
9561
100
AcDbZombieObject
 90
      499
 91
      510
 93
       41
310
903313A31580
  0
ACAD_PROXY_OBJECT
  5
9563
102
{ACAD_REACTORS
330
9561
102
}
330
9561
100
AcDbZombieObject
 90
      499
 91
      510
 93
      105
310
903313A324000000000000004000
  0
ACAD_PROXY_OBJECT
  5
9564
102
{ACAD_REACTORS
330
9561
102
}
330
9561
100
AcDbZombieObject
 90
      499
 91
      510
 93
      105
310
903313A344000000000000104000
  0
ACAD_PROXY_OBJECT
  5
9565
102
{ACAD_REACTORS
330
9561
102
}
330
9561
100
AcDbZombieObject
 90
      499
 91
      510
 93
      105
310
903313A354000000000000144000
  0
ACAD_PROXY_OBJECT
  5
9566
102
{ACAD_REACTORS
330
9561
102
}
330
9561
100
AcDbZombieObject
 90
      499
 91
      510
 93
      105
310
903313A384000000000000204000
  0
ACAD_PROXY_OBJECT
  5
9567
102
{ACAD_REACTORS
330
9561
102
}
330
9561
100
AcDbZombieObject
 90
      499
 91
      510
 93
      113
310
904313A31304000000000000244000
  0
ACAD_PROXY_OBJECT
  5
9568
102
{ACAD_REACTORS
330
9561
102
}
330
9561
100
AcDbZombieObject
 90
      499
 91
      510
 93
      113
310
904313A31364000000000000304000
  0
ACAD_PROXY_OBJECT
  5
9569
102
{ACAD_REACTORS
330
9561
102
}
330
9561
100
AcDbZombieObject
 90
      499
 91
      510
 93
      113
310
904313A32304000000000000344000
  0
ACAD_PROXY_OBJECT
  5
956A
102
{ACAD_REACTORS
330
9561
102
}
330
9561
100
AcDbZombieObject
 90
      499
 91
      510
 93
      113
310
904313A333040000000000003E4000
  0
ACAD_PROXY_OBJECT
  5
956B
102
{ACAD_REACTORS
330
9561
102
}
330
9561
100
AcDbZombieObject
 90
      499
 91
      510
 93
      113
310
904313A34304000000000000444000
  0
ACAD_PROXY_OBJECT
  5
956C
102
{ACAD_REACTORS
330
9561
102
}
330
9561
100
AcDbZombieObject
 90
      499
 91
      510
 93
      113
310
904313A35304000000000000494000
  0
ACAD_PROXY_OBJECT
  5
956D
102
{ACAD_REACTORS
330
9561
102
}
330
9561
100
AcDbZombieObject
 90
      499
 91
      510
 93
      121
310
905313A3130304000000000000594000
  0
ACAD_PROXY_OBJECT
  5
956E
102
{ACAD_REACTORS
330
9561
102
}
330
9561
100
AcDbZombieObject
 90
      499
 91
      510
 93
      105
310
903323A310000000000000010100
  0
ACAD_PROXY_OBJECT
  5
956F
102
{ACAD_REACTORS
330
9561
102
}
330
9561
100
AcDbZombieObject
 90
      499
 91
      510
 93
      105
310
903343A310000000000000410100
  0
ACAD_PROXY_OBJECT
  5
9570
102
{ACAD_REACTORS
330
9561
102
}
330
9561
100
AcDbZombieObject
 90
      499
 91
      510
 93
      105
310
903383A310000000000000810100
  0
ACAD_PROXY_OBJECT
  5
9571
102
{ACAD_REACTORS
330
9561
102
}
330
9561
100
AcDbZombieObject
 90
      499
 91
      510
 93
      113
310
90431303A310000000000000910100
  0
ACAD_PROXY_OBJECT
  5
9572
102
{ACAD_REACTORS
330
9561
102
}
330
9561
100
AcDbZombieObject
 90
      499
 91
      510
 93
      121
310
9053130303A310000000000001650100
  0
ACAD_PROXY_OBJECT
  5
9573
102
{ACAD_REACTORS
330
9561
102
}
330
9561
100
AcDbZombieObject
 90
      499
 91
      510
 93
      257
310
90E312F31323822203D2031272D3022000000000000200FC000000000000284000
  0
ACAD_PROXY_OBJECT
  5
9574
102
{ACAD_REACTORS
330
9561
102
}
330
9561
100
AcDbZombieObject
 90
      499
 91
      510
 93
      249
310
90D312F363422203D2031272D3022000000000000240FC000000000000284000
  0
ACAD_PROXY_OBJECT
  5
9575
102
{ACAD_REACTORS
330
9561
102
}
330
9561
100
AcDbZombieObject
 90
      499
 91
      510
 93
      249
310
90D312F333222203D2031272D3022000000000000280FC000000000000284000
  0
ACAD_PROXY_OBJECT
  5
9576
102
{ACAD_REACTORS
330
9561
102
}
330
9561
100
AcDbZombieObject
 90
      499
 91
      510
 93
      249
310
90D312F313622203D2031272D30220000000000002C0FC000000000000284000
  0
ACAD_PROXY_OBJECT
  5
9577
102
{ACAD_REACTORS
330
9561
102
}
330
9561
100
AcDbZombieObject
 90
      499
 91
      510
 93
      249
310
90D332F333222203D2031272D30220000000000002E0FC000000000000284000
  0
ACAD_PROXY_OBJECT
  5
9578
102
{ACAD_REACTORS
330
9561
102
}
330
9561
100
AcDbZombieObject
 90
      499
 91
      510
 93
      241
310
90C312F3822203D2031272D3022000000000000300FC000000000000284000
  0
ACAD_PROXY_OBJECT
  5
9579
102
{ACAD_REACTORS
330
9561
102
}
330
9561
100
AcDbZombieObject
 90
      499
 91
      510
 93
      249
310
90D332F313622203D2031272D3022000000000000320FC000000000000284000
  0
ACAD_PROXY_OBJECT
  5
957A
102
{ACAD_REACTORS
330
9561
102
}
330
9561
100
AcDbZombieObject
 90
      499
 91
      510
 93
      241
310
90C312F3422203D2031272D3022000000000000340FC000000000000284000
  0
ACAD_PROXY_OBJECT
  5
957B
102
{ACAD_REACTORS
330
9561
102
}
330
9561
100
AcDbZombieObject
 90
      499
 91
      510
 93
      241
310
90C332F3822203D2031272D3022000000000000360FC000000000000284000
  0
ACAD_PROXY_OBJECT
  5
957C
102
{ACAD_REACTORS
330
9561
102
}
330
9561
100
AcDbZombieObject
 90
      499
 91
      510
 93
      241
310
90C312F3222203D2031272D3022000000000000380FC000000000000284000
  0
ACAD_PROXY_OBJECT
  5
957D
102
{ACAD_REACTORS
330
9561
102
}
330
9561
100
AcDbZombieObject
 90
      499
 91
      510
 93
      241
310
90C332F3422203D2031272D30220000000000003A0FC000000000000284000
  0
ACAD_PROXY_OBJECT
  5
957E
102
{ACAD_REACTORS
330
9561
102
}
330
9561
100
AcDbZombieObject
 90
      499
 91
      510
 93
      161
310
90A3122203D2031272D30224000000000000284000
  0
ACAD_PROXY_OBJECT
  5
957F
102
{ACAD_REACTORS
330
9561
102
}
330
9561
100
AcDbZombieObject
 90
      499
 91
      510
 93
      257
310
90E312D312F3222203D2031272D30220000000000003E0FC000000000000284000
  0
ACAD_PROXY_OBJECT
  5
9580
102
{ACAD_REACTORS
330
9561
102
}
330
9561
100
AcDbZombieObject
 90
      499
 91
      510
 93
      225
310
90A3322203D2031272D302200000000000002100000000000000284000
  0
ACAD_PROXY_OBJECT
  5
9581
102
{ACAD_REACTORS
330
9561
102
}
330
9561
100
AcDbZombieObject
 90
      499
 91
      510
 93
      225
310
90A3622203D2031272D302200000000000006100000000000000284000
  0
ACAD_PROXY_OBJECT
  5
9582
102
{ACAD_REACTORS
330
9561
102
}
330
9561
100
AcDbZombieObject
 90
      499
 91
      510
 93
      249
310
90D31272D3022203D2031272D30220000000000000A100000000000000284000
  0
ACAD_PROXY_OBJECT
  5
9556
102
{ACAD_REACTORS
330
9550
102
}
330
9550
100
AcDbZombieObject
 90
      499
 91
      509
 93
      436
310
42CC9915DA5C99599C985B595049028333333333333E3BF0000000000000FB0107901411070040501600405405064090741402480A0340
1001
ACAD
1000
AcDbSavedByObjectVersion
1070
     0
  0
ACAD_PROXY_OBJECT
  5
9558
102
{ACAD_REACTORS
330
9550
102
}
330
9550
100
AcDbZombieObject
 90
      499
 91
      509
 93
      500
310
424CD108121A5919195B90640502408333333333333E3BF0000000000000FB01079024090700405020000000000001110200405405064090740C02480A0340
1001
ACAD
1000
AcDbSavedByObjectVersion
1070
     0
  0
ACAD_PROXY_OBJECT
  5
9557
102
{ACAD_REACTORS
330
9550
102
}
330
9550
100
AcDbZombieObject
 90
      499
 91
      509
 93
      436
310
42CCD915DA5C99599C985B595059028333333333333E3BF0000000000000FB0107901411070040501600405405064090741402480A0340
1001
ACAD
1000
AcDbSavedByObjectVersion
1070
     0
  0
ACAD_PROXY_OBJECT
  5
9555
102
{ACAD_REACTORS
330
9550
102
}
330
9550
100
AcDbZombieObject
 90
      499
 91
      509
 93
      388
310
4150985CDA58D07406404333333333333E3BF0000000000000FB0107A41107004050150841D405064090741402480A0350
1001
ACAD
1000
AcDbSavedByObjectVersion
1070
     0
  0
ACAD_PROXY_OBJECT
  5
955C
102
{ACAD_REACTORS
330
9550
102
}
330
9550
100
AcDbZombieObject
 90
      499
 91
      509
 93
      428
310
42109C9A59DA1D195B90C409028333333333333E3BF0000000000000FB010790141107004050150841D405064090741402480A029950
1001
ACAD
1000
AcDbSavedByObjectVersion
1070
     0
  0
ACAD_PROXY_OBJECT
  5
9560
102
{ACAD_REACTORS
330
9550
102
}
330
9550
100
AcDbZombieObject
 90
      499
 91
      509
 93
      452
310
42D0DBDB1BDC90DA185B99D95104090240C333333333333E3BF0000000000000FB0108901411070040501508421405064090741402480A0350
1001
ACAD
1000
AcDbSavedByObjectVersion
1070
     0
  0
ACAD_PROXY_OBJECT
  5
9559
102
{ACAD_REACTORS
330
9550
102
}
330
9550
100
AcDbZombieObject
 90
      499
 91
      509
 93
      500
310
4290DBDB98D95C1D1D585B10940D028333333333333E3BF0000000000000FB0107902409070040501000000000000111010841D405064090740C02480A0340
1001
ACAD
1000
AcDbSavedByObjectVersion
1070
     0
  0
ACAD_PROXY_OBJECT
  5
955B
102
{ACAD_REACTORS
330
9550
102
}
330
9550
100
AcDbZombieObject
 90
      499
 91
      509
 93
      412
310
40D11A5B50B409028333333333333E3BF0000000000000FB010790141107004050150841D405064090741402480A02677FFFFFD0
1001
ACAD
1000
AcDbSavedByObjectVersion
1070
     0
  0
ACAD_PROXY_OBJECT
  5
A211
102
{ACAD_REACTORS
330
9550
102
}
330
9550
100
AcDbZombieObject
 90
      499
 91
      509
 93
      452
310
43115919D950DBDB1BDC93D999916409028333333333333E3BF0000000000000FB010790141107004050150841D405064090741402480A0350
1001
ACAD
1000
AcDbSavedByObjectVersion
1070
     0
  0
ACAD_PROXY_OBJECT
  5
955F
102
{ACAD_REACTORS
330
9550
102
}
330
9550
100
AcDbZombieObject
 90
      499
 91
      509
 93
      444
310
42D19858D95C185D1D195C9B90F409028333333333333E3BF0000000000000FB010790141107004050150841D405064090741402480A0350
1001
ACAD
1000
AcDbSavedByObjectVersion
1070
     0
  0
ACAD_PROXY_OBJECT
  5
9551
102
{ACAD_REACTORS
330
9550
102
}
330
9550
100
AcDbZombieObject
 90
      499
 91
      509
 93
      388
310
41119B185D240901404333333333333E3BF0000000000000F9010740A41107004050150841D405064090741402480A1B50
1001
ACAD
1000
AcDbSavedByObjectVersion
1070
     0
  0
ACAD_PROXY_OBJECT
  5
9552
102
{ACAD_REACTORS
330
9550
102
}
330
9550
100
AcDbZombieObject
 90
      499
 91
      509
 93
      476
310
43519B185D15DA5D1A115919D95CD0140901404333333333333E3BF0000000000000F9010740901411070040501600405405064090741402480A1B50
1001
ACAD
1000
AcDbSavedByObjectVersion
1070
     0
  0
ACAD_PROXY_OBJECT
  5
9553
102
{ACAD_REACTORS
330
9550
102
}
330
9550
100
AcDbZombieObject
 90
      499
 91
      509
 93
      412
310
41D1DBDD5C985D5910240902404333333333333E3BF0000000000000F9010740A411070040501641D405064090741402480A1B50
1001
ACAD
1000
AcDbSavedByObjectVersion
1070
     0
  0
ACAD_PROXY_OBJECT
  5
9554
102
{ACAD_REACTORS
330
9550
102
}
330
9550
100
AcDbZombieObject
 90
      499
 91
      509
 93
      500
310
4411DBDD5C985D5915DA5D1A115919D95CD0340902404333333333333E3BF0000000000000F9010740901411070040501600405405064090741402480A1B50
1001
ACAD
1000
AcDbSavedByObjectVersion
1070
     0
  0
ACAD_PROXY_OBJECT
  5
A260
102
{ACAD_REACTORS
330
9550
102
}
330
9550
100
AcDbZombieObject
 90
      499
 91
      509
 93
      476
310
41921A5919195B90640502408333333333333E33F0000000000000F901079024090700405020000000000001110200405405064090740C02480A0340
1001
ACAD
1000
AcDbSavedByObjectVersion
1070
     0
  0
ACAD_PROXY_OBJECT
  5
A20F
102
{ACAD_REACTORS
330
9550
102
}
330
9550
100
AcDbZombieObject
 90
      499
 91
      509
 93
      428
310
42529A5D1D195C93D999914409028333333333333E3BF0000000000000FB010790141107004050150A41D405064090741402480A0350
1001
ACAD
1000
AcDbSavedByObjectVersion
1070
     0
  0
ACAD_PROXY_OBJECT
  5
955E
102
{ACAD_REACTORS
330
9550
102
}
330
9550
100
AcDbZombieObject
 90
      499
 91
      509
 93
      444
310
42D31A5B995C185D1D195C9B90E409028333333333333E3BF0000000000000FB010790141107004050750841D405064090741402483A0350
1001
ACAD
1000
AcDbSavedByObjectVersion
1070
     0
  0
ACAD_PROXY_OBJECT
  5
A266
102
{ACAD_REACTORS
330
9550
102
}
330
9550
100
AcDbZombieObject
 90
      499
 91
      509
 93
      484
310
42135BD9195B1A5B99D0A409038333333333333E33F0000000000000F901074090290700405010000000000201990108421405064090741402480A1B40
1001
ACAD
1000
AcDbSavedByObjectVersion
1070
     0
  0
ACAD_PROXY_OBJECT
  5
A210
102
{ACAD_REACTORS
330
9550
102
}
330
9550
100
AcDbZombieObject
 90
      499
 91
      509
 93
      444
310
42D3DD995C9A185B99D3D999915409028333333333333E3BF0000000000000FB010790141107004050150941D405064090741402480A0350
1001
ACAD
1000
AcDbSavedByObjectVersion
1070
     0
  0
ACAD_PROXY_OBJECT
  5
955A
102
{ACAD_REACTORS
330
9550
102
}
330
9550
100
AcDbZombieObject
 90
      499
 91
      509
 93
      420
310
425499585B1A5CDD1A58D08409028333333333333E3BF0000000000000FB01079019070040501508421405064090741402480A1B40
1001
ACAD
1000
AcDbSavedByObjectVersion
1070
     0
  0
ACAD_PROXY_OBJECT
  5
A265
102
{ACAD_REACTORS
330
9550
102
}
330
9550
100
AcDbZombieObject
 90
      499
 91
      509
 93
      420
310
4194DA1859195911B40902404333333333333E33F0000000000000F9010740A41107004050150800405405064090840C02480A0B40
1001
ACAD
1000
AcDbSavedByObjectVersion
1070
     0
  0
ACAD_PROXY_OBJECT
  5
A264
102
{ACAD_REACTORS
330
9550
102
}
330
9550
100
AcDbZombieObject
 90
      499
 91
      509
 93
      516
310
4454DA18591959081DDA5D1A08195919D95CD1A40902404333333333333E33F0000000000000F901074090142907004050250800405405064090740C02480A0B40
1001
ACAD
1000
AcDbSavedByObjectVersion
1070
     0
  0
ACAD_PROXY_OBJECT
  5
A261
102
{ACAD_REACTORS
330
9550
102
}
330
9550
100
AcDbZombieObject
 90
      499
 91
      509
 93
      532
310
4394DA1859195CC81BD98811DC985E5174090240C333333333333E33F0000000000000F901079024090741D01000000000000111010841D405064090740C02480A0340
1001
ACAD
1000
AcDbSavedByObjectVersion
1070
     0
  0
ACAD_PROXY_OBJECT
  5
A262
102
{ACAD_REACTORS
330
9550
102
}
330
9550
100
AcDbZombieObject
 90
      499
 91
      509
 93
      476
310
41D4DAD95D18DA1E51840502408333333333333E33F0000000000000F901079024090741D01000000000000111010B41D405064090741802480A0340
1001
ACAD
1000
AcDbSavedByObjectVersion
1070
     0
  0
ACAD_PROXY_OBJECT
  5
955D
102
{ACAD_REACTORS
330
9550
102
}
330
9550
100
AcDbZombieObject
 90
      499
 91
      509
 93
      412
310
41D51A1A58DAD95B90D409028333333333333E3BF0000000000000FB010790141107004050150C41D405064090741402480A0350
1001
ACAD
1000
AcDbSavedByObjectVersion
1070
     0
  0
ACAD_PROXY_OBJECT
  5
A25F
102
{ACAD_REACTORS
330
9550
102
}
330
9550
100
AcDbZombieObject
 90
      499
 91
      509
 93
      420
310
4255DA5C99599C985B595059028333333333333E33F0000000000000F90107901411070040501600405405064090740C02480A0340
1001
ACAD
1000
AcDbSavedByObjectVersion
1070
     0
  0
ACAD_PROXY_OBJECT
  5
A263
102
{ACAD_REACTORS
330
9550
102
}
330
9550
100
AcDbZombieObject
 90
      499
 91
      509
 93
      404
310
41560B54985E51940902404000000000000E03F0000000000000F9010740501907004050150841D405064090740C02480A1B40
1001
ACAD
1000
AcDbSavedByObjectVersion
1070
     0
  0
XRECORD
  5
B5E5
102
{ACAD_REACTORS
330
B5E4
102
}
330
B5E4
100
AcDbXrecord
340
18D
  0
XRECORD
  5
B5E6
102
{ACAD_REACTORS
330
B5E4
102
}
330
B5E4
100
AcDbXrecord
340
18C
  0
DICTIONARYVAR
  5
AAE0
102
{ACAD_REACTORS
330
37
102
}
330
37
100
DictionaryVariables
280
     0
  1
1:1
  0
DICTIONARYVAR
  5
9627
102
{ACAD_REACTORS
330
37
102
}
330
37
100
DictionaryVariables
280
     0
  1
Standard
  0
DICTIONARYVAR
  5
29E
102
{ACAD_REACTORS
330
37
102
}
330
37
100
DictionaryVariables
280
     0
  1
Standard
  0
DICTIONARYVAR
  5
38
102
{ACAD_REACTORS
330
37
102
}
330
37
100
DictionaryVariables
280
     0
  1
-1
  0
DICTIONARYVAR
  5
1CE
102
{ACAD_REACTORS
330
37
102
}
330
37
100
DictionaryVariables
280
     0
  1
2
  0
DICTIONARYVAR
  5
704E
102
{ACAD_REACTORS
330
37
102
}
330
37
100
DictionaryVariables
280
     0
  1
1
  0
DICTIONARYVAR
  5
962A
102
{ACAD_REACTORS
330
37
102
}
330
37
100
DictionaryVariables
280
     0
  1
0
  0
DICTIONARYVAR
  5
7052
102
{ACAD_REACTORS
330
37
102
}
330
37
100
DictionaryVariables
280
     0
  1
8
  0
DICTIONARYVAR
  5
7051
102
{ACAD_REACTORS
330
37
102
}
330
37
100
DictionaryVariables
280
     0
  1
1
  0
DICTIONARYVAR
  5
AB30
102
{ACAD_REACTORS
330
37
102
}
330
37
100
DictionaryVariables
280
     0
  1
0
  0
DICTIONARYVAR
  5
704F
102
{ACAD_REACTORS
330
37
102
}
330
37
100
DictionaryVariables
280
     0
  1
8
  0
DICTIONARYVAR
  5
7050
102
{ACAD_REACTORS
330
37
102
}
330
37
100
DictionaryVariables
280
     0
  1
2
  0
DICTIONARYVAR
  5
1CF
102
{ACAD_REACTORS
330
37
102
}
330
37
100
DictionaryVariables
280
     0
  1

  0
DICTIONARYVAR
  5
9629
102
{ACAD_REACTORS
330
37
102
}
330
37
100
DictionaryVariables
280
     0
  1
127
  0
DICTIONARYVAR
  5
A25E
102
{ACAD_REACTORS
330
37
102
}
330
37
100
DictionaryVariables
280
     0
  1
2
  0
DICTIONARY
  5
B782
330
9540
100
AcDbDictionary
  3
ACAD_XREC_ROUNDTRIP
360
B783
1001
ACAD
1000
TREAT_AS_HARD
1070
     1
  0
DICTIONARY
  5
B784
330
9538
100
AcDbDictionary
  3
ACAD_XREC_ROUNDTRIP
360
B785
1001
ACAD
1000
TREAT_AS_HARD
1070
     1
  0
DICTIONARY
  5
B786
330
9548
100
AcDbDictionary
  3
ACAD_XREC_ROUNDTRIP
360
B787
1001
ACAD
1000
TREAT_AS_HARD
1070
     1
  0
XRECORD
  5
B783
102
{ACAD_REACTORS
330
B782
102
}
330
B782
100
AcDbXrecord
102
MATERIAL
148
0.0
149
0.0
149
0.0
 93
        0
 94
      127
282
     0
 72
     0
 77
     0
171
     0
175
     0
179
     0
273
     0
  0
XRECORD
  5
B785
102
{ACAD_REACTORS
330
B784
102
}
330
B784
100
AcDbXrecord
102
MATERIAL
148
0.0
149
0.0
149
0.0
 93
        0
 94
      127
282
     0
 72
     0
 77
     0
171
     0
175
     0
179
     0
273
     0
  0
XRECORD
  5
B787
102
{ACAD_REACTORS
330
B786
102
}
330
B786
100
AcDbXrecord
102
MATERIAL
148
0.0
149
0.0
149
0.0
 93
        0
 94
      127
282
     0
 72
     0
 77
     0
171
     0
175
     0
179
     0
273
     0
  0
ENDSEC
  0
EOF
